» » »

Guano Apes - Lords On The Boards Tabs

Artists:  A B C D E F G H I J K L M N O P Q R S T U V W X Y Z # 

Lords On The Boards Tabs

(ver. 1) Click to play this song!
Guano Apes
 Rating:
4/5 (4 votes)

 Lords On The Boards lessons Tabs too difficult? Try these video lessons and learn fast
 
                e|------------------------------|----------------------------|
b|------------------------------|----------------------------|
g|*-----------------------------|----------------------------|
d|*-----------------------------|----------------------------|
a|---4-2-4----4-2-4-2-4--4-2-4--|--4-2-4----4-2-4-2-4--4-5---|
e|---2-0-2----2-0-2-0-2--2-0-2--|--2-0-2----2-0-2-0-2--2-3---|


--------------------------||----------------------------|                   
--------------------------||----------------------------|
--------------------------||----------------------------|
--------8-----------8-----||*--------8-----------8-----*|
-----6-----6-----6-----6--||------6-----6-----6-----6---|
--4-----------------------||---4------------------------|
            
Submit corrections


        Lords On The Boards lessons Hard to play? Try these video lessons and learn fast Lords On The Boards lessons
        
↑ Back to top | Tablatures and chords for acoustic guitar and electric guitar, ukulele, drums are parodies/interpretations of the original songs. You may use it for private study, scholarship, research or language learning purposes only