» » »

Grinspoon - Post Enibriated Anxiety Tabs

Artists:  A B C D E F G H I J K L M N O P Q R S T U V W X Y Z # 

Post Enibriated Anxiety Tabs

(ver. 1) Click to play this song!
Grinspoon
 Rating:
4/5 (4 votes)
                POST ENEBRIATED ANXIETY
As recorded by Grinspoon
Words and Music by Philip Jamieson and Pat Davern
Track Number: 9
Track Length: 2:37

Drop D Tuning (low to high: D A D G B E)

Intro

|---------------------------------------------------------------|
|---------------------------------------------------------------|
|---------------------------------------------------------------|
|-3-5-5-3-5-5-3-5-5-3-5-5-3-5-5-5-3-5-5-3-5-5-3-5-5-3-5-5-3-5-5-|
|-3-5-5-3-5-5-3-5-5-3-5-5-3-5-5-5-3-5-5-3-5-5-3-5-5-3-5-5-3-5-5-|
|-3-5-5-3-5-5-3-5-5-3-5-5-3-5-5-5-3-5-5-3-5-5-3-5-5-3-5-5-3-5-5-|

Riff A (Gtr. 1 w/dist.)
|---------------------------------------------------------------|
|---------------------------------------------------------------|
|---------------------------------------------------------------|
|-0-2-3-0-2-3-x-x-3-0-2-3-x-x-3-0-2-3-x-x-3-0-2-3-x-x-3-0-2-3-6-|
|-0-2-3-0-2-3-x-x-3-0-2-3-x-x-3-0-2-3-x-x-3-0-2-3-x-x-3-0-2-3-6-|
|-0-2-3-0-2-3-x-x-3-0-2-3-x-x-3-0-2-3-x-x-3-0-2-3-x-x-3-0-2-3-6-|


Verses

|-------------------------------------------------|
|-------------------------------------------------|
|-------------------------------------------------|
|---------------------------------------------3-6-|
|-0-3-0-2-3--3-0-2-3--3-0-2-3--3-0-2-3--3-0-2-3-6-|
|-0-3-0-2-3--3-0-2-3--3-0-2-3--3-0-2-3--3-0-2-3-6-|
slight p.m...................................

Chorus

(play 5 times)
|------------------------------|--------------------------|
|------------------------------|--------------------------|
|------------------------------|--------------------------|
|-0-5h0---3--0-5h0-0-3--6-5-3--|--0-5h0-3--0-5h0-0-3--6-5-|
|-0-5h0-0-3--0-5h0-0-3--6-5-3--|--0-5h0-3--0-5h0-0-3--6-5-|
|-0-5h0-0-3--0-5h0-0-3--6-5-3--|--0-5h0-3--0-5h0-0-3--6-5-|

Bridge

(play 4 times)
|---------------------|
|---------------------|
|---------------------|
|-6-5-3--6-5-3--0-0-0-|
|-6-5-3--6-5-3--0-0-0-|
|-6-5-3--6-5-3--0-0-0-|
            
Submit corrections

↑ Back to top | Tablatures and chords for acoustic guitar and electric guitar, ukulele, drums are parodies/interpretations of the original songs. You may use it for private study, scholarship, research or language learning purposes only