» » »

Gregory And The Hawk - Miss Miss Tabs

Artists:  A B C D E F G H I J K L M N O P Q R S T U V W X Y Z # 

Miss Miss Tabs

(ver. 1) Click to play this song!
Gregory And The Hawk
 Rating:
4/5 (4 votes)

 Miss Miss lessons Tabs too difficult? Try these video lessons and learn fast
 
                Capo 6 for the recording version
Just chorus/verse are tabbed here.

Tuning: CADGBe

Intro/Verse

E-3---------3-----3---------3-----|
B-------3-------3-------3-------3-|
G-----0-------0-------0-------0---|
D---------------------------------|
A-5-------5-------5-------5-------|
C---------------------------------|


E-2---------2-----2---------2-----|
B-------3-------3-------3-------3-|
G-----0-------0-------0-------0---|
D---------------------------------|
A-5-------5-------5-------5-------|
C---------------------------------|


E-0---------0-----0---------0-----|
B-------1-------1-------1-------1-|
G-----0-------0-------0-------0---|
D-2-------2-------2-------2-------|
A---------------------------------|
C---------------------------------|


E-2---------2-----2---------2-----|
B-------3-------3-------3-------3-|
G-----0-------0-------0-------0---|
D---------------------------------|
A-5-------5-------5-------5-------|
C---------------------------------|

Chorus:
E---------------------------------|
B---------------------------------|
G-0---------0-----0---------0-----|
D-------4-------4-------4-------4-|
A-----2-------2-------3-------3---|
C-4-------4-------2-------2-------|

E---------------------------------|
B-1---------1---------------------|
G-------0-------0-0---------0-----|
D-----2-------2---------4-------4-|
A---------------------3-------3---|
C-0-------0-------2-------2-------|

Lyrics:

please don't answer my call
cause I just couldn't stand it at all
if you were any less
than you at your best

when you hear my song on the radio
will your teary eyes be covered
I miss you, I miss you
all over the refrain
it's a different kind of love
I see you, I see you
time and again in my dreams
I'm with you, i'm with you
frame by frame
it's a different kind of love
baby says he's crying but stays
I can see it all over your face

so if you're down, just find me around
I'm on the corner, I'm in your car
I'm waiting for you with open arms
you said I'd be growing up
instead I've taken so long
now I've found a different way to go

it's never been so easy,
you never tried so hard
to please me
            
Submit corrections


        Miss Miss lessons Hard to play? Try these video lessons and learn fast Miss Miss lessons
        
↑ Back to top | Tablatures and chords for acoustic guitar and electric guitar, ukulele, drums are parodies/interpretations of the original songs. You may use it for private study, scholarship, research or language learning purposes only