» » »

Gregory And The Hawk - Isabelle Tabs

Artists:  A B C D E F G H I J K L M N O P Q R S T U V W X Y Z # 

Isabelle Tabs

(ver. 1) Click to play this song!
Gregory And The Hawk
 Rating:
4.7/5 (12 votes)

 Isabelle lessons Tabs too difficult? Try these video lessons and learn fast
 
                =This is a great song, I love Gregory and The Hawk
Anyways, there is a capo on fret 3, and it's in standard tuning.
A few of the notes might be a bit off, but...whatever.
(P.S. this song is fingerpicked...I do believe.)

|------------------|
|------------------|
|-3-3-2-2-2-2-0-0--|
|--0-0-0-0-0-0-0-0-| x 15
|------------------|
|-3---3---1---0----|

|------------------|
|------------------|
|-5-5-4-4-5-5-4-4--|
|--0-0-0-0-0-0-0-0-|
|------------------|
|-5---3---5---3----|

|------------------|
|------------------|
|-3-3-2-2-2-2-0-0--|
|--0-0-0-0-0-0-0-0-| x 8
|------------------|
|-3---3---1---0----|

|------------------|
|------------------|
|-5-5-4-4-5-5-4-4--|
|--0-0-0-0-0-0-0-0-|
|------------------|
|-5---3---5---3----|


|------------------|
|------------------|
|-3-3-2-2-2-230----|
|--0-0-0-0-0-------|
|------------------|
|-3---3---1---0----|
            
Submit corrections


        Isabelle lessons Hard to play? Try these video lessons and learn fast Isabelle lessons
        
↑ Back to top | Tablatures and chords for acoustic guitar and electric guitar, ukulele, drums are parodies/interpretations of the original songs. You may use it for private study, scholarship, research or language learning purposes only