» » »

Gregory And The Hawk - Irreplaceable Tabs

Artists:  A B C D E F G H I J K L M N O P Q R S T U V W X Y Z # 

Irreplaceable Tabs

(ver. 1) Click to play this song!
Gregory And The Hawk
 Rating:
4.2/5 (5 votes)

 Irreplaceable lessons Tabs too difficult? Try these video lessons and learn fast
 
                
These are the tabs to a wonderful cover of Beyonce's Irreplaceable, by Gregory and the 
thought I'd post what I figured out. Enjoy!

Capo 5th fret

Tuning: e B F# D A D
(Tune G down 1/2 step, and low E down 1 step)

INTRO/VERSE
e||---------------------------------||
B||---------------------------------||
F#|---3h5-0---3h5-0-----------------||
D||---0---0---0---0---0---0---0---0-||
A||---------0-------5---5---7---7---||
D||-0---------------5---5---7---7---||

e||---------------------------------||
B||---------------------------------||
F#|---0h1-0---0h1-0-----------------||
D||---0---0---0---0---0---0---0---0-||
A||---------2-------2---2---5---5---||
D||-0---------------2---2---5---5---||

CHORUS
e||---------------------------------||
B||---------------------------------||
F#|---------------------------------||
D||---0---0---0---0---0---0---0---0-||
A||-0---0---2---2---5---5---7---7---||
D||-0---0---2---2---5---5---7---7---||
            
Submit corrections


        Irreplaceable lessons Hard to play? Try these video lessons and learn fast Irreplaceable lessons
        
↑ Back to top | Tablatures and chords for acoustic guitar and electric guitar, ukulele, drums are parodies/interpretations of the original songs. You may use it for private study, scholarship, research or language learning purposes only