» » »

Gregory Alan Isakov - Where You Gonna Go Tabs

Artists:  A B C D E F G H I J K L M N O P Q R S T U V W X Y Z # 

Where You Gonna Go Tabs

(ver. 1) Click to play this song!
Gregory Alan Isakov
 Rating:
4.3/5 (18 votes)

 Where You Gonna Go lessons Tabs too difficult? Try these video lessons and learn fast
 
                [Intro]

e|----------------|---------------|--------------|------------------------------|
B|----------------|---------------|--------------|------------------------------|
G|----0--3--5--0--|---3/5-3/5--5--|--5p3-0-------|----5p3-0---------------------|
D|-3--------------|---------------|--------3h5---|-----------3------------------|
A|----------------|---------------|--------------|------------------------------|
E|----------------|---------------|--------------|------------------------------|

e|----------------|---------------|--------------|------------------------------|
B|----------------|---------------|--------------|------------------------------|
G|----0--3--5--0--|---3/5-3/5--5--|--5p3-0-------|----5p3-0---------------------|
D|-3--------------|---------------|--------3h5---|-----------3------------------|
A|----------------|---------------|--------------|------------------------------|
E|----------------|---------------|--------------|------------------------------|


[Verse]

e|----------------|---------------|--------------|------------------------------|
B|----------------|---------------|--------------|------------------------------|
G|----0--3--5--0--|---3/5-3/5--5--|--5p3-0-------|----5p3-0---------------------|
D|-3--------------|---------------|--------3h5---|-----------3------------------|
A|----------------|---------------|--------------|------------------------------|
E|----------------|---------------|--------------|------------------------------|

e|----------------|---------------|--------------|------------------------------|
B|----------------|---------------|--------------|------------------------------|
G|----0--3--5--0--|---3/5-3/5--5--|--5p3-0-------|----5p3-0---------------------|
D|-3--------------|---------------|--------3h5---|-----------3------------------|
A|----------------|---------------|--------------|------------------------------|
E|----------------|---------------|--------------|------------------------------|


[Outro]

e|---------------------------------------------------------------------------|
B|---------------------------------------------------------------------------|
G|----0--3--5--0-------------------------------------------------------------|
D|-3-------------------------------------------------------------------------|
A|---------------------------------------------------------------------------|
E|---------------------------------------------------------------------------|

            
Submit corrections


        Where You Gonna Go lessons Hard to play? Try these video lessons and learn fast Where You Gonna Go lessons
        
↑ Back to top | Tablatures and chords for acoustic guitar and electric guitar, ukulele, drums are parodies/interpretations of the original songs. You may use it for private study, scholarship, research or language learning purposes only