» » »

Gregory Alan Isakov - The Moon Was Red And Dangerous Tabs

Artists:  A B C D E F G H I J K L M N O P Q R S T U V W X Y Z # 

The Moon Was Red And Dangerous Tabs

(ver. 1) Click to play this song!
Gregory Alan Isakov
 Rating:
4/5 (4 votes)

 The Moon Was Red And Dangerous lessons Tabs too difficult? Try these video lessons and learn fast
 
                (Intro)
this is the tabs for Gregory alan isakov - the moon was red and dangerous

i worked hard to get them after i couldn't find them anywhere online...

i hope you will enjoy them :P




/ = Slide
~ = Vibrato

  C
e|--------------------------------------------|
B|--------------------------------------------|
G|-----0---------------------0--0-------------|
D|---2-----3---2---0----2---------------------| X2
A|-3-----3---3---3---33~----------------------|
E|--------------------------------------------|

  Em
e|--------------------------------------------|
B|--------------------------------------------|
G|--------------------------------------------|
D|-----2---4---5---4---2----------------------| X2
A|---2---2---2---2---2---2---5-----2----------|
E|-0----------------------------0-------------|

   F
e|--------------------------------------------|
B|--------------------------------------------|
G|---------2---0------------------------------|
D|-----3-----------3---2---3---3/5------------|
A|---3---3---3---3---3---3---3----------------|
E|-1------------------------------------------|
  
  C
e|--------------------------------------------|
B|--------------------------------------------|
G|-------------0------------------------------|
D|---2-2---3-------3---2----------------------|
A|-3-----3---3---3---3---3/5~/3---------------|
E|--------------------------------------------|
  
  G
e|--------------------------------------------|
B|--------------------------------------------|
G|--------------------------------------------|
D|-----0---3---2------------------------------| X2
A|---2---2---2---0--5---3---2~----------------|
E|-3------------------3---3----3--------------|

now he start singing and the tabs are the same just give a little more chords and less frets.

enjoy!
            
Submit corrections


        The Moon Was Red And Dangerous lessons Hard to play? Try these video lessons and learn fast The Moon Was Red And Dangerous lessons
        
↑ Back to top | Tablatures and chords for acoustic guitar and electric guitar, ukulele, drums are parodies/interpretations of the original songs. You may use it for private study, scholarship, research or language learning purposes only