» » »

Gregory Alan Isakov - San Luis Chords

Artists:  A B C D E F G H I J K L M N O P Q R S T U V W X Y Z # 

San Luis Chords

(ver. 1) Click to play this song!
Gregory Alan Isakov
 Rating:
4.3/5 (16 votes)

 San Luis lessons Tabs too difficult? Try these video lessons and learn fast
 
                [Intro]
       Em           G           C/G       G           C/G
e|-----------------------------------------------------------------------|
b|------------------------------1-----1---------------1--1---------------|
g|-----0-----0------0-----------0-----0---0-----------0--0---------------|
d|-----2-----2------0-----0-----2-----2---0-----0-----2--0h2-------------|
a|-----2-----2------2--0h2------3-----3---2--0h2------3--3---------------|
e|--0--0--0--0---3--3--------3--3--3--3---3--------3--3--3---------------|

       Em           G           C/G       G           C/G   G      C/G  G      C/G  G      C/G  G      C/G
e|----------------------------------------------------------------------------------------------------------|
b|------------------------------1-----1---------------1------------1-0---------1-0---------1-0---------1-0--|
g|-----0-----0------0-----------0-----0---0-----------0-----0--0-0-0-0--0--0-0-0-0--0--0-0-0-0--0--0-0-0-0--|
d|-----2-----2------0-----0-----2-----2---0-----0-----2-----0--0-0-2-0--0--0-0-2-0--0--0-0-2-0--0--0-0-2-0--|
a|-----2-----2------2--0h2------3-----3---2--0h2------3-----2--2-2-3----2--2-2-3----2--2-2-3----2--2-2-3----|
e|--0--0--0--0---3--3--------3--3--3--3---3--------3--3-----3--3-3-3----3--3-3-3----3--3-3-3----3--3-3-3----|
                                                           |________________________________________________|
                                                                     Let's call this part "Riff 1"

Em                 G    C/G
weightlessness, no gravity
        G              C/G    C/G
were we somewhere in-between

      D
i’m a ghost of you, you’re a ghost of me
  Am                 G     C/G   C/G
a bird’s-eye view of San Luis

G C/G [Riff 1]
Em G C/G
G C/G
Em G C/G
G C/G [Riff 1]

    Em               G        C/G
oh, highway boys all sleeping in
           Em               G      C/G     C/G
with their dirty mouths and broken strings
          D
oh, their eyes are shining like the sea
    Am                G   C/G   C/G
for you, the queen of San Luis
      D
i’m a ghost of you, you’re a ghost of me
  Am                 G   C/G   C/G
a bird’s-eye view of San Luis

Em G C/G
G C/G
Em G C/G
G C/G [Riff 1]

Bm
cutting through the avenues
    C/G
i’d always find my way to you
Em                   G           C/G   C/G
beside the hook, the hammer lies

Bm
fumbling round in the smoke
C/G
spending time chasing ghosts
Em            G             C/G
hold me down, hold me down, child
Em            G             C/G     C/G
hold me down, hold me down, child

Em         G          C/G
California called you queen
          Em              G   C/G   C/G
with your golden hair and magazine
         G            C/G
were you somewhere in-between
      G               C/G    C/G
fast asleep, a flying dream

      D
i’m a ghost of you, you’re a ghost of me
  Am                 G   C/G   C/G
a bird’s-eye view of San Luis

      D
i’m a ghost of you, you’re a ghost of me
  Am                 G   C/G   C/G
a bird’s-eye view of San Luis

      D
i’m a ghost of you, you’re a ghost of me
  Am                 G   C/G   C/G
a bird’s-eye view of San Luis

      D
i’m a ghost of you, you’re a ghost of me
  Am                 G   C/G   C/G
a bird’s-eye view of San Luis

[Outro]

C/G
            
Submit corrections


        San Luis lessons Hard to play? Try these video lessons and learn fast San Luis lessons
        
↑ Back to top | Tablatures and chords for acoustic guitar and electric guitar, ukulele, drums are parodies/interpretations of the original songs. You may use it for private study, scholarship, research or language learning purposes only