» » »

Gregory Alan Isakov - Dandelion Wine Tabs

Artists:  A B C D E F G H I J K L M N O P Q R S T U V W X Y Z # 

Dandelion Wine Tabs

(ver. 1) Click to play this song!
Gregory Alan Isakov
 Rating:
4/5 (4 votes)

 Dandelion Wine lessons Tabs too difficult? Try these video lessons and learn fast
 
                Intro

    Am                  Fmaj9                 G             Fmaj9            
e|----0--0--3--0-0---------0-0----0-0--0--------3-3--0--------0-0---0-0------| 
B|----1--1--1------3-1-----1-1----1-1----3-1----3-3----3-1----1-1---1-1------|
G|----2--2--2--------------2-2----2-2-----------0-0-----------2-2---2-2------|
D|----2--2--2-----------3--3-3--3-3-3-----------------------3-3-3-3-3-3------|
A|--0-0--0--0----------------------------------------------------------------|
E|--------------------------------------------3------------------------------| x2

Verse

      C             Am            Fmaj9          
            Summer days were just a magazine
e|----0-0----0-0-----0-0----0-0-----0-0----0-0---|
B|----1-1----1-1-----1-1----1-1-----1-1----1-1---|
G|----0-0----0-0-----2-2----2-2-----2-2----2-2---|
D|----2-2----2-2-----2-2----2-2---3-3-3--3-3-3---|
A|--3-3-3--3-3-3---0-0-0--0-0-0------------------|
E|-----------------------------------------------|

      G           Fmaj9           
   A magazine, A magazine?
e|----3-3--------0-0----0-0----------------------|
B|----0-0--------1-1----1-1----------------------|
G|----0-0--------2-2----2-2----------------------|
D|----0-0------3-3-3--3-3-3----------------------|
A|----2-2----------------------------------------|
E|--3-3-3----------------------------------------|

      Am                Fmaj9                 
     cutting grass for gasoline, 
e|----0-0----0-0--------0-0----0-0---------------|
B|----1-1----1-1--------1-1----1-1---------------|
G|----2-2----2-2--------2-2----2-2---------------|
D|----2-2----2-2------3-3-3--3-3-3---------------|
A|--0-0-0--0-0-0---------------------------------|
E|-----------------------------------------------|

    G           Fmaj9           C
for gasoline so I can see ya soon?
e|----3-3--------0-0------------0-0----0-0-------------|
B|----0-0--------1-1------------1-1----1-1-------------|
G|----0-0--------2-2------------0-0----0-0-------------|
D|----0-0------3-3-3------------2-2----2-2-------------|
A|----2-2---------------------3-3-3--3-3-3-------------|
E|--3-3-3----------------------------------------------|

Pre chorus

    Am                  Fmaj9                 G             Fmaj9            
e|----0--0--3--0-0---------0-0----0-0--0--------3-3--0--------0-0---0-0------| 
B|----1--1--1------3-1-----1-1----1-1----3-1----3-3----3-1----1-1---1-1------|
G|----2--2--2--------------2-2----2-2-----------0-0-----------2-2---2-2------|
D|----2--2--2-----------3--3-3--3-3-3-----------------------3-3-3-3-3-3------|
A|--0-0--0--0----------------------------------------------------------------|
E|--------------------------------------------3------------------------------| x2

Chorus

   C         Fmaj9
   Fall swooned
e|---0-0------0-0----0-0------------|
B|---1-1------1-1----1-1------------|
G|---0-0------2-2----2-2------------|
D|---2-2----3-3-3--3-3-3------------|
A|-3-3-3----------------------------|
E|----------------------------------|

                   Am
left me drunk in a field
e|---0-0----0-0------0-0------------|
B|---1-1----1-1------1-1------------|
G|---2-2----2-2------2-2------------|
D|-3-3-3--3-3-3------2-2------------|
A|-----------------0-0-0------------|
E|----------------------------------|

    G     C              F                           C
    dandelion wine for a year
e|---3-3----0-0----0-0-----1-1----1-1----1-1----1-1----0-0----0-0----0-0----0-0---|
B|---0-0----1-1----1-1-----1-1----1-1----1-1----1-1----1-1----1-1----1-1----1-1---|
G|---0-0----0-0----0-0-----2-2----2-2----2-2----2-2----0-0----0-0----0-0----0-0---|
D|---0-0----2-2----2-2-----3-3----3-3----3-3----3-3----2-2----2-2----2-2----2-2---|
A|---2-2--3-3-3--3-3-3---3-3-3--3-3-3--3-3-3--3-3-3--3-3-3--3-3-3--3-3-3--3-3-3---|
E|-3-3-3--------------------------------------------------------------------------|

         Fmaj9
   and I packed up the dust
e|---------0-0----0-0----0-0----0-0------------------------------|
B|---------1-1----1-1----1-1----1-1------------------------------|
G|---------2-2----2-2----2-2----2-2------------------------------|
D|-------3-3-3--3-3-3--3-3-3--3-3-3------------------------------|
A|---------------------------------------------------------------|
E|---------------------------------------------------------------|

                 Am
   of all that I owned
e|-----------------0-0-------------------------------------------|
B|-----------------1-1-------------------------------------------|
G|-----------------2-2-------------------------------------------|
D|-----------------2-2-------------------------------------------|
A|---------------0-0-0-------------------------------------------|
E|---------------------------------------------------------------|

   G        C                      F
   handkerchief        hung from a pole
e|----3-3-----0-0-----0-0----------1-1----------------|
B|----0-0-----1-1-----1-1----------1-1----------------|
G|----0-0-----0-0-----0-0----------2-2----------------|
D|----0-0-----2-2-----2-2----------3-3----------------|
A|----2-2---3-3-3---3-3-3--------3-3-3----------------|
E|--3-3-3---------------------------------------------|

  Fmaj9                            C             E
  I rolled out the day that the apples fell?
e|---0-0----0-0----0-0--------------0-0----0-0----0-0------------|
B|---1-1----1-1----1-1--------------1-1----1-1----0-0------------|
G|---2-2----2-2----2-2--------------0-0----0-0----1-1------------|
D|-3-3-3--3-3-3--3-3-3--------------2-2----2-2----2-2------------|
A|--------------------------------3-3-3--3-3-3--2-2-2------------|
E|---------------------------------------------------------------|


Outro

    E      Am     F     C
e|----0-0----0-0----1-1----0-0---|
B|----0-0----1-1----1-1----1-1---|
G|----1-1----2-2----2-2----0-0---|
D|----2-2----2-2----3-3----2-2---|
A|--2-2-2--0-0-0--3-3-3--3-3-3---|
E|-------------------------------| x4

    E      C    
e|----0-0----0-0-----------------|
B|----0-0----1-1-----------------|
G|----1-1----0-0-----------------|
D|----2-2----2-2-----------------|
A|--2-2-2--3-3-3-----------------|
E|-------------------------------|

    Am                  Fmaj9                 G             Fmaj9            
e|----3--0-0---------0-0----0-0--0--------3-3--0--------0-0---0-0------| 
B|----1------3-1-----1-1----1-1----3-1----3-3----3-1----1-1---1-1------|
G|----2--------------2-2----2-2-----------0-0-----------2-2---2-2------|
D|----2-----------3--3-3--3-3-3-----------------------3-3-3-3-3-3------|
A|----0----------------------------------------------------------------|
E|--------------------------------------3------------------------------|    
    Am                  Fmaj9                 G             Fmaj9            
e|----0--0--3--0-0---------0-0----0-0--0--------3-3--0--------0-0---0-0--0---| 
B|----1--1--1------3-1-----1-1----1-1----3-1----3-3----3-1----1-1---0-0--1---|
G|----2--2--2--------------2-2----2-2-----------0-0-----------2-2---2-2--2---|
D|----2--2--2-----------3--3-3--3-3-3-----------------------3-3-3-3-3-3--2---|
A|--0-0--0--0------------------------------------------------------------0---|
E|--------------------------------------------3------------------------------|            
Submit corrections


        Dandelion Wine lessons Hard to play? Try these video lessons and learn fast Dandelion Wine lessons
        
↑ Back to top | Tablatures and chords for acoustic guitar and electric guitar, ukulele, drums are parodies/interpretations of the original songs. You may use it for private study, scholarship, research or language learning purposes only