Home » G » Gregory Alan Isakov »

Gregory Alan Isakov - Big Black Car Bass

Artists:  A B C D E F G H I J K L M N O P Q R S T U V W X Y Z # 

Big Black Car Bass

(ver. 1) Click to play this song!
Gregory Alan Isakov
[Intro]
G|-----------------|-----------------|
D|-----------------|-----------------|
A|-3~-1~------6~-5-|-3~-1~------6~-5-|
E|--------4~-------|--------4~-------| (x2)

[Interlude]
G|-------------------------|-------------------------|
D|----3h5------------------|----3h5------------------|
A|-3------6--3--1--3--6--3-|-3------6--3--1--3--6--3-|
E|-------------------------|-------------------------|

[Verse]
G|-----------------------|-----------------------|
D|-----------------------|-----------------------|
A|-3~--5-6---------------|-3~--5-6---------------|
E|----------6-4--6--4--3-|----------6-4--6--4--3-|

G|----------------------------|-----------------------|
D|----------------------------|-----------------------|
A|-3~--5-6--13-11--13--11--10-|-3~--5-6---------------|
E|----------------------------|----------6-4--6--4--3-|

[Interlude]
G|-------------------------|-------------------------|
D|----3h5------------------|----3h5------------------|
A|-3------6--3--1--3--6--3-|-3------6--3--1--3--6--3-|
E|-------------------------|-------------------------|

[Chorus]
G|------------------|-------------------|
D|---------1~--1----|-------------------|
A|-1~----1-------1~-|-1-3~--3-----------|
E|------------------|---------3--3--3-3-|

G|----------------|--------------------------|
D|-1~--1----------|---3--3--3-3--3--5/6--5---|
A|-------1~--1-3~-|-3----------------------6-|
E|----------------|--------------------------|

[Verse 2]
G|-----------------------|-----------------------|
D|-----------------------|-----------------------|
A|-3~--5-6---------------|-3~--5-6---------------|
E|----------6-4--6--4--3-|----------6-4--6--4--3-|

G|----------------------------|-----------------------|
D|----------------------------|-----------------------|
A|-3~--5-6--13-11--13--11--10-|-3~--5-6---------------|
E|----------------------------|----------6-4--6--4--3-|

G|-------------------------|------------------------|
D|-------------------------|------------------------|
A|-3~--5-6-----------6-5---|-3~--5-6-----------6--5-|
E|----------6-4--6-4-----4-|----------6-4--6-4------|

[Chorus]
G|---------------------------|---------------------------|
D|---------------------------|-1--1--1--1-1--------------|
A|-1--1--1--1-1--------------|--------------1--1--1--1-1-|
E|--------------4--4--4--4-4-|---------------------------|

G|---------------------------|---------------------------|
D|---------------------------|-1--1--1--1-3--------------|
A|-1--1--1--1-1--------------|--------------1--1--1--1-1-|
E|--------------4--4--4--4-4-|---------------------------|

G|---------------|
D|-----------3---|
A|-1--1-1--1---1-|
E|---------------|

[Verse 3]
G|-----------------|-----------------|
D|-----------------|-----------------|
A|-3~-1~------6~-5-|-3~-1~------6~-5-|
E|--------4~-------|--------4~-------| (x2)

G|-------------------|-------------------|
D|-------------------|-------------------|
A|-3~-1~------6--6-5-|-3~-1~------6--6-5-|
E|--------4~---------|--------4~---------|

[Interlude]
G|-------------------------|-------------------------|
D|----3h5------------------|----3h5------------------|
A|-3------6--3--1--3--6--3-|-3------6--3--1--3--6--3-|
E|-------------------------|-------------------------|

[Outro] (fading out)
G|-------------------|-----------------|
D|-------------------|-----------------|
A|-3~-1~------6--6-5-|-3~-1~------6~-5-|
E|--------4~---------|--------4~-------| (x4)

            
Submit corrections

↑ Back to top | Tablatures and chords for acoustic guitar and electric guitar, ukulele, drums are parodies/interpretations of the original songs. You may use it for private study, scholarship, research or language learning purposes only