Home » G » Gregor Meyle »

Gregor Meyle - Keine Ist Wie Du Tabs

Artists:  A B C D E F G H I J K L M N O P Q R S T U V W X Y Z # 

Keine Ist Wie Du Tabs

(ver. 1) Click to play this song!
Gregor Meyle
Intro
e-|----------------|----------------|----------------|----------------|
B-|------7-------7-|------7-------7-|------7-------7-|------7-------7-|
G-|----0-0-----0-0-|----0-0-----0-0-|----0-0-----0-0-|----0-0-----0-0-|
D-|--9-------9-----|--9-------9-----|--9-------9-----|--9-------9-----|
A-|----------------|----------------|----------------|----------------|
E-|0-------0-------|0-------0-------|8-------8-------|8-------8-------|

e-|----------------|----------------|----------------|----------------|
B-|------7-------7-|------7-------7-|------7-------7-|------7-------7-|
G-|----0-0-----0-0-|----0-0-----0-0-|----0-0-----0-0-|----0-0-----0-0-|
D-|--9-------9-----|--9-------9-----|--9-------9-----|--9-------9-----|
A-|----------------|----------------|----------------|----------------|
E-|0-------0-------|0-------0-------|8-------8-------|8-------8-------|



Verse
Du bist immernoch hier bei mir...
e-|----------------|----------------|----------------|----------------|
B-|------3-------3-|------3-------3-|------7-------7-|------7-------7-|
G-|----2-2-----2-2-|----2-2-----2-2-|----0-0-----0-0-|----0-0-----0-0-|
D-|--0-------0-----|--0-------0-----|--9-------9-----|--9-------9-----|
A-|----------------|----------------|----------------|----------------|
E-|3-------3-------|3-------3-------|0-------0-------|0-------0-------|

e-|----------------|----------------|----------------|----------------|
B-|------7-------7-|------7-------7-|------5-------5-|------5-------5-|
G-|----0-0-----0-0-|----0-0-----0-0-|----0-0-----0-0-|----0-0-----0-0-|
D-|--9-------9-----|--9-------9-----|--5-------5-----|--5-------5-----|
A-|----------------|----------------|----------------|----------------|
E-|8-------8-------|8-------8-------|5-------5-------|5-------5-------|

e-|----------------|----------------|----------------|----------------|
B-|------3-------3-|------3-------3-|------7-------7-|------7-------7-|
G-|----2-2-----2-2-|----2-2-----2-2-|----0-0-----0-0-|----0-0-----0-0-|
D-|--0-------0-----|--0-------0-----|--9-------9-----|--9-------9-----|
A-|----------------|----------------|----------------|----------------|
E-|3-------3-------|3-------3-------|0-------0-------|0-------0-------|

e-|----------------|----------------|----------------|----------------|
B-|------7-------7-|------7-------7-|------0-------0-|------0-------0-|
G-|----0-0-----0-0-|----0-0-----0-0-|----0-0-----0-0-|----0-0-----0-0-|
D-|--9-------9-----|--9-------9-----|--2-------2-----|--2-------2-----|
A-|----------------|----------------|4-------4-------|4-------4-------|
E-|8-------8-------|8-------8-------|----------------|----------------|



Chorus
Ich will nie wieder mein Kopf verlier'n...
e-|----------------|----------------|----------------|----------------|
B-|------3-------3-|------3-------3-|------4-------4-|------4-------4-|
G-|----2-2-----2-2-|----2-2-----2-2-|----2-2-----2-2-|----2-2-----2-2-|
D-|--0-------0-----|--0-------0-----|--4-------4-----|--4-------4-----|
A-|----------------|----------------|2-------2-------|2-------2-------|
E-|3-------3-------|3-------3-------|----------------|----------------|

e-|----------------|----------------|----------------|----------------|
B-|------3-------3-|------3-------3-|------3-------3-|------3-------3-|
G-|----0-0-----0-0-|----0-0-----0-0-|----0-0-----0-0-|----0-0-----0-0-|
D-|--2-------2-----|--2-------2-----|--2-------2-----|--2-------2-----|
A-|----------------|----------------|3-------3-------|3-------3-------|
E-|0-------0-------|0-------0-------|----------------|----------------|

e-|----------------|----------------|----------------|----------------|
B-|------3-------3-|------3-------3-|------4-------4-|------4-------4-|
G-|----2-2-----2-2-|----2-2-----2-2-|----2-2-----2-2-|----2-2-----2-2-|
D-|--0-------0-----|--0-------0-----|--4-------4-----|--4-------4-----|
A-|----------------|----------------|2-------2-------|2-------2-------|
E-|3-------3-------|3-------3-------|----------------|----------------|

e-|----------------|----------------|----------------|----------------|
B-|------3-------3-|------3-------3-|------3-------3-|------3-------3-|
G-|----0-0-----0-0-|----0-0-----0-0-|----0-0-----0-0-|----0-0-----0-0-|
D-|--2-------2-----|--2-------2-----|--2-------2-----|--2-------2-----|
A-|----------------|----------------|3-------3-------|3-------3-------|
E-|0-------0-------|0-------0-------|----------------|----------------|


Verse:

Chorus:


lnterlude
Es gibt noch andere...
e-|----------------|----------------|----------------|----------------|
B-|------0-------0-|------0-------0-|------0-------0-|------0-------0-|
G-|----0-0-----0-0-|----0-0-----0-0-|----0-0-----0-0-|----0-0-----0-0-|
D-|--7-------7-----|--7-------7-----|--7-------7-----|--7-------7-----|
A-|----------------|----------------|----------------|----------------|
E-|8-------8-------|8-------8-------|7-------7-------|7-------7-------|

e-|----------------|----------------|----------------|----------------|
B-|------0-------0-|------0-------0-|------0-------5-|------5-------0-|
G-|----0-0-----0-0-|----0-0-----0-0-|----0-0-----0-0-|----0-0-----0-0-|
D-|--7-------7-----|--7-------7-----|--2-------2-----|--2-------2-----|
A-|----------------|----------------|4-------4-------|4-------4-------|
E-|8-------8-------|8-------8-------|----------------|----------------|

e-|----------------|----------------|----------------|----------------|
B-|------3-------3-|------3-------3-|------3-------3-|------3-------3-|
G-|----0-0-----0-0-|----0-0-----0-0-|----0-0-----0-0-|----0-0-----0-0-|
D-|--2-------2-----|--2-------2-----|--0-------0-----|--0-------0-----|
A-|3-------3-------|3-------3-------|2-------2-------|2-------2-------|
E-|----------------|----------------|----------------|----------------|

e-|----------------|----------------|----------------|----------------|
B-|------1-------1-|------1-------1-|------0-------0-|------0-------0-|
G-|----0-0-----0-0-|----0-0-----0-0-|----2-2-----2-2-|----2-2-----2-2-|
D-|--2-------2-----|--2-------2-----|--1-------1-----|--1-------1-----|
A-|0-------0-------|0-------0-------|3-------3-------|3-------3-------|
E-|----------------|----------------|----------------|----------------|


 Oh hohh...
e-|----------------|----------------|----------------|----------------|
B-|------3-------3-|------3-------3-|------4-------4-|------4-------4-|
G-|----0-0-----0-0-|----0-0-----0-0-|----2-2-----2-2-|----2-2-----2-2-|
D-|--0-------0-----|--0-------0-----|--4-------4-----|--4-------4-----|
A-|----------------|----------------|2-------2-------|2-------2-------|
E-|3-------3-------|3-------3-------|----------------|----------------|

e-|----------------|----------------|----------------|----------------|
B-|------3-------3-|------3-------3-|------3-------3-|------3-------3-|
G-|----0-0-----0-0-|----0-0-----0-0-|----0-0-----0-0-|----0-0-----0-0-|
D-|--2-------2-----|--2-------2-----|--2-------2-----|--2-------2-----|
A-|----------------|----------------|3-------3-------|3-------3-------|
E-|0-------0-------|0-------0-------|----------------|----------------|

Chorus


For female singers it can be played without capo.
There is one very nice version where Gregor Meyle plays and Sarah Connor is singing.

Have fun.

Jo Paro

            
Submit corrections

↑ Back to top | Tablatures and chords for acoustic guitar and electric guitar, ukulele, drums are parodies/interpretations of the original songs. You may use it for private study, scholarship, research or language learning purposes only