Home » G » Great Lake Swimmers »

Great Lake Swimmers - Various Stages Chords

Artists:  A B C D E F G H I J K L M N O P Q R S T U V W X Y Z # 

Various Stages Chords

(ver. 1) Click to play this song!
Great Lake Swimmers

A simple yet beautiful song:

Intro/verse/bridge/outro:

  D      C      G

|-2-2222-0-0000-3-3333---------------------------------|
|-3-3333-1-1111-0-3333-—-------------------------------|
|-2-2222-0-0000-0-0000---------------------------------|
|-0-0000-2-2222-0-0000---------------------------------|
|--------3-3333-2-2222---------------------------------|
|---------------3-3333---------------------------------|

On transition from intro into verse, verse into chorus or bridge into verse repeat G.

Chorus:

  D      Am     Em

|-2-2222-0-0000-0-0000---------------------------------|
|-3-3333-1-1111-0-0000-—-------------------------------|
|-2-2222-2-2222-0-0000---------------------------------|
|-0-0000-2-2222-2-2222---------------------------------|
|--------0-0000-2-2222---------------------------------|
|--------0-0000-0-0000---------------------------------|

On transition from Chorus repeat Em.

Song Structure:

Intro
Verse
Chorus
Verse 
Chorus
Bridge
Verse 
Chorus
Outro
            
Submit corrections

↑ Back to top | Tablatures and chords for acoustic guitar and electric guitar, ukulele, drums are parodies/interpretations of the original songs. You may use it for private study, scholarship, research or language learning purposes only