» » »

Grease - Summer Nights Bass

Artists:  A B C D E F G H I J K L M N O P Q R S T U V W X Y Z # 

Summer Nights Bass

(ver. 1) Click to play this song!
Grease
 Rating:
4.3/5 (12 votes)

 Summer Nights lessons Tabs too difficult? Try these video lessons and learn fast
 
                [Intro] 0:00

G|---------0---0--2---2--0--2---0--------------------------------------------| 
D|--0---0--------------------------------------------------------------------|
A|---------------------------------------------------------------------------| x2
E|---------------------------------------------------------------------------| 


[Verse] 0:08

G|---------0---0--2---2--0--2---0--------------------------------------------| 
D|--0---0--------------------------------------------------------------------|
A|---------------------------------------------------------------------------| x2
E|---------------------------------------------------------------------------|

G|---------0---0--2---4-------------------2---2--------1--2------------------| 
D|--0---0-----------------------1--2---2---------2--4------------------0--0--|
A|------------------------2--4--------------------------------0--2--4--------| 
E|---------------------------------------------------------------------------| 

G|-----0--------------------------------0--2--2------------------------------|
D|--4----------------------------2----------------0--------------------------|
A|---------------0--0---2--2--2-----------------------0--0--0--2--2--4--4----|
E|--------3---3---------------------0----------------------------------------|


[Chorus] 0:31

G|------------0--0---0------------2--2----------------0--0---0------------2--|
D|--0--0---4------------2--2---2------------0--0---4------------2--2---2-----|
A|---------------------------------------4-----------------------------------|
E|---------------------------------------------------------------------------|

G|--2-------------0---0--2---2--0--2---0-------------------------------------|
D|---------0---0-------------------------------------------------------------|
A|------4--------------------------------------------------------------------|
E|---------------------------------------------------------------------------|


[Verse] 0:43 

G|---------0---0--2---2--0---2--0--------------------------------------------| 
D|--0---0--------------------------------------------------------------------|
A|---------------------------------------------------------------------------| x2
E|---------------------------------------------------------------------------|

G|---------0---0--2---4----------------1--2---2-------1--2------------------0| 
D|--0---0-----------------------1--2-------------2-------------------0---0---|
A|------------------------2--4------------------------------0--2--4----------| 
E|---------------------------------------------------------------------------| 

G|--0--2---4-----------------------------------------------------------------|
D|-------------------1--2---------------0------------------------------------|
A|-------------2--4------------0--2---------0--0--0--2--2--4--4--------------|
E|--------------------------3--------3---------------------------------------|


[Chorus] 1:06

G|------------0--0---0------------2--2----------------0--0---0------------2--|
D|--0--0---4------------2--2---2------------0--0---4------------2--2---2-----|
A|---------------------------------------4-----------------------------------|
E|---------------------------------------------------------------------------|

G|--2-------------0---0--2---2--0--2---0---------0---0--2---2--0--2---0------|
D|---------0---0--------------------------0---0------------------------------|
A|------4--------------------------------------------------------------------|
E|---------------------------------------------------------------------------|


[Verse] 1:22

G|---------0---0--2---2--0---2--0--------------------------------------------| 
D|--0---0--------------------------------------------------------------------|
A|---------------------------------------------------------------------------| x2
E|---------------------------------------------------------------------------|

G|---------0---0--2---4-------------------1--2--2---2---------1--2-----------| 
D|--0---0-----------------------1--2--2----------------2--2------------------|
A|------------------------2--4--------------------------------------0--2--4--| 
E|---------------------------------------------------------------------------| 

G|------------0--0---0--2--2--2--4-------------------------------------------|
D|--0--0---4-------------------------------1--2--2---2-----------------------|
A|-----------------------------------2--4---------------0--0---0--1---1---1--|
E|---------------------------------------------------------------------------|

G|---------------------------------------------------------------------------|
D|---------------------------------------------------------------------------|
A|--1------------------------------------------------------------------------|
E|---------------------------------------------------------------------------|


[Chorus] 1:44

G|---------0--1--1---1-----------------------------0--1--1---1---------------|
D|--1--1----------------3--3----------------1--1----------------3--3---------|
A|-----------------------------1---1-----1-----------------------------1---1-|
E|------------------------------------4--------------------------------------|

G|------------------0--1---1--3---3--1---1------0--1---1--3------------------|
D|--------1-----1---------------------------1---------------------------0----|
A|-----1-----1------------------------------------------------1---1--3-------|
E|--4------------------------------------------------------------------------|


[Verse] 2:01

G|---------1---1--3---3--1---3---------1---1--3---3--1---3---------1----1--3-| 
D|--1---1-----------------------1---1-----------------------1---1------------|
A|---------------------------------------------------------------------------| 
E|---------------------------------------------------------------------------|

G|--3--3--5-------------------------------------------------------------0--1-|
D|---------------0--2--3--3---3------------3--3---3--------------1--1--------|
A|------------3------------------1--1---1------------1--1--1--1--------------|
E|---------------------------------------------------------------------------|

G|--1---1--3--3--3--5-------------------------------------4--4---------------|
D|-------------------------0--2--3--3--3--3----------------------------------|
A|----------------------3--------------------1---1--2--2---------------------|
E|---------------------------------------------------------------------------|


[Chorus] 2:24

G|---------1--2--2---2-------------------------------1--2--2---2-------------|
D|--2--2----------------4--4---4--------1-----2--2----------------4--4---4---|
A|--------------------------------2--2-----2--------------------------------2|
E|---------------------------------------------------------------------------|

G|---------------------------------------------------------------------------|
D|-----1-----2---------------------------------------------------------------|
A|--2-----2---------0--------------------------------------------------------|
E|---------------------------------------------------------------------------|


[Verse] 2:35

G|---------0---0--2---2--0---2--0--------------------------------------------| 
D|--0---0--------------------------------------------------------------------|
A|---------------------------------------------------------------------------| x2
E|---------------------------------------------------------------------------|

G|---------0---0--2---2--4---------------------------------------------------| 
D|--0---0---------------------------2--------------------------0-------------|
A|--------------------------------------0-----------0------------------------| 
E|---------------------------------------------0-------------------3---------|

G|---------------------------------------------------------------------------|
D|---------------------------------------------------------------------------|
A|--0---2-------------------0------------------------------------------------|
E|---------------------0-----------------------------------------------------|

[Outro] 3:21

G|------------0-----0--------------------------------------------------------|
D|--0---0--0-----0-----0--0---0---0------------------------------------------|
A|---------------------------------------------------------------------------|
E|---------------------------------------------------------------------------|

G|---------------------------------------------------------------------------|
D|---------------------------------------------------------------------------|
A|---------------------------------------------------------------------------|
E|---------------------------------------------------------------------------|
            
Submit corrections


        Summer Nights lessons Hard to play? Try these video lessons and learn fast Summer Nights lessons
        
↑ Back to top | Tablatures and chords for acoustic guitar and electric guitar, ukulele, drums are parodies/interpretations of the original songs. You may use it for private study, scholarship, research or language learning purposes only