» » »

Grease - Reproduction Bass

Artists:  A B C D E F G H I J K L M N O P Q R S T U V W X Y Z # 

Reproduction Bass

(ver. 1) Click to play this song!
Grease
 Rating:
4/5 (4 votes)

 Reproduction lessons Tabs too difficult? Try these video lessons and learn fast
 
                intro
G|----------|--------------------------------------|
D|----0-----|-0220022-----------55--55-777-5777-57-|
A|-0-2--012-|--------22-44-22-44--55--55-----------|
E|----------|--------------------------------------|

verse
G|----------------------------------------------------------|
D|----------------------------4/2/000-22-22-2/455-55-777-57-|
A|--5-5---5-5-1/2-2---2-2---5-----------2--2-----5--5-------|
E|-5---5-5---5-----2-2---5-7--------------------------------|

chorus1									chorus outro
G|------------------------------------------|--------|-----------|
D|-7-9----------------------------55-55-777-|-77779--|-----------|
A|----5-5---5-5-1/2-2---2-2--5-0/2--5--5----|------5-|-55--55--5-|
E|-------5-5---5-----2-2---57---------------|--------|---55--57--|

chorus2
G|-3-5----------------------------------------------|-33335-8-|
D|---------------------------------66-66-8888888888-|------1--|
A|----6-6---6-6-2/3-3---3-3---6-1/3--6--6-----------|---------|
E|-------6-6---6-----3-3---6-8----------------------|---------|
            
Submit corrections


        Reproduction lessons Hard to play? Try these video lessons and learn fast Reproduction lessons
        
↑ Back to top | Tablatures and chords for acoustic guitar and electric guitar, ukulele, drums are parodies/interpretations of the original songs. You may use it for private study, scholarship, research or language learning purposes only