» » »

Grease - Back To School Again Bass

Artists:  A B C D E F G H I J K L M N O P Q R S T U V W X Y Z # 

Back To School Again Bass

(ver. 1) Click to play this song!
Grease
 Rating:
4/5 (4 votes)

 Back To School Again lessons Tabs too difficult? Try these video lessons and learn fast
 
                intro
G|-------------------|-------|----------------|-----------------------|
D|---1-3-31--1---1-3-|-------|----3-3-3-3-3-5-|-1-1-1-1-1-3-3-3-3-3---|
A|-33------33-3-3----|3333333|3-3-------------|---------------------3>|
E|-------------------|-------|----------------|-----------------------|

G|----------------|---------------|------------|--------------|
D|-11-33-35-------|-11-33-551-1-3-|-11-33-5----|-11-33-51-----|
A|---------3-3-3--|----------3----|--------333-|---------3-13-|
E|----------------|---------------|------------|--------------|

G|----------|------------------------------------------------------|
D|------666-|-4-66666-8-----4444-6666-----44-66-8---44-66-88-4-4-6-|
A|-66666----|----------6666----------6666--------66-----------6----|
E|----------|------------------------------------------------------|

G|--------------------------|
D|-44-66-8-----44-66-84-----|
A|--------666----------6-46-|
E|--------------------------|
            
Submit corrections


        Back To School Again lessons Hard to play? Try these video lessons and learn fast Back To School Again lessons
        
↑ Back to top | Tablatures and chords for acoustic guitar and electric guitar, ukulele, drums are parodies/interpretations of the original songs. You may use it for private study, scholarship, research or language learning purposes only