» » »

Grandaddy - Am 180 Tabs

Artists:  A B C D E F G H I J K L M N O P Q R S T U V W X Y Z # 

Am 180 Tabs

(ver. 3) Click to play this song!
Grandaddy
 Rating:
4.2/5 (30 votes)

 Am 180  lessons Tabs too difficult? Try these video lessons and learn fast
 
                [Chorus]

e|-------------------------------------------------| x4
B|-------------------------------------------------|
G|-3-3-3-3-3-3-------------5-5-5-5-5-5-------------|
D|-3-3-3-3-3-3-5-5-5-5-5-5-5-5-5-5-5-5-3-3-3-3-3-3-|
A|-1-1-1-1-1-1-5-5-5-5-5-5-3-3-3-3-3-3-3-3-3-3-3-3-|
E|-------------3-3-3-3-3-3-------------1-1-1-1-1-1-|


[Verse]

PALM MUTED           PALM MUTED
e|-------------| x4  e|-------------| x4     This Part is not in the original
B|-------------|     B|-------------|        but works quite nicely with the track.
G|-------------|     G|-------------|    
D|-3-3-3-3-3-3-|     D|-8-8-8-8-8-8-|
A|-3-3-3-3-3-3-|     A|-8-8-8-8-8-8-|
E|-1-1-1-1-1-1-|     E|-6-6-6-6-6-6-|

PALM MUTED           PALM MUTED
e|-------------| x4  e|-------------| x4    
B|-------------|     B|-------------|        
G|-------------|     G|-------------|    
D|-3-3-3-3-3-3-|     D|-8-8-8-8-8-8-|
A|-3-3-3-3-3-3-|     A|-8-8-8-8-8-8-|
E|-1-1-1-1-1-1-|     E|-6-6-6-6-6-6-|


[Chorus]

e|-------------------------------------------------| x4
B|-------------------------------------------------|
G|-3-3-3-3-3-3-------------5-5-5-5-5-5-------------|
D|-3-3-3-3-3-3-5-5-5-5-5-5-5-5-5-5-5-5-3-3-3-3-3-3-|
A|-1-1-1-1-1-1-5-5-5-5-5-5-3-3-3-3-3-3-3-3-3-3-3-3-|
E|-------------3-3-3-3-3-3-------------1-1-1-1-1-1-|


[Verse]

PALM MUTED           PALM MUTED
e|-------------| x4  e|-------------| x4     This Part is not in the original
B|-------------|     B|-------------|        but works quite nicely with the track.
G|-------------|     G|-------------|    
D|-3-3-3-3-3-3-|     D|-8-8-8-8-8-8-|
A|-3-3-3-3-3-3-|     A|-8-8-8-8-8-8-|
E|-1-1-1-1-1-1-|     E|-6-6-6-6-6-6-|

PALM MUTED           PALM MUTED
e|-------------| x4  e|-------------| x4    
B|-------------|     B|-------------|        
G|-------------|     G|-------------|    
D|-3-3-3-3-3-3-|     D|-8-8-8-8-8-8-|
A|-3-3-3-3-3-3-|     A|-8-8-8-8-8-8-|
E|-1-1-1-1-1-1-|     E|-6-6-6-6-6-6-|



[Chorus 1]

e|-------------------------------------------------| x1
B|-------------------------------------------------|
G|-3-3-3-3-3-3-------------5-5-5-5-5-5-------------|
D|-3-3-3-3-3-3-5-5-5-5-5-5-5-5-5-5-5-5-3-3-3-3-3-3-|
A|-1-1-1-1-1-1-5-5-5-5-5-5-3-3-3-3-3-3-3-3-3-3-3-3-|
E|-------------3-3-3-3-3-3-------------1-1-1-1-1-1-|


e|-------------------------------------------------| x1
B|-------------------------------------------------|
G|-3-3-3-3-3-3-------------5-5-5-5-5-5-7-7-7-7-7-7-|
D|-3-3-3-3-3-3-5-5-5-5-5-5-5-5-5-5-5-5-7-7-7-7-7-7-|
A|-1-1-1-1-1-1-5-5-5-5-5-5-3-3-3-3-3-3-5-5-5-5-5-5-|
E|-------------3-3-3-3-3-3-------------------------|


[Interlude]

e|-5~~~---4~~~---5~~~---3~~~---|-5~~~---4~~~---5~~~----------| x1
B|-----------------------------|-----------------------------|
G|-----------------------------|--------------------5--5h6---|
D|-----------------------------|-----------------------------|
A|-----------------------------|-----------------------------|
E|-----------------------------|-----------------------------|


[Chorus 2]

TREMOLO PICKING
e|-----------------------------| x3
B|-----------------------------|
G|-2------5-3-2-------0-2-/14\-|
D|-----------------------------|
A|-----------------------------|
E|-----------------------------|
                            
TREMOLO PICKING
e|-----------------------------| x1
B|----------------------~------|
G|-2------5-3-2-------0-2------|
D|-----------------------------|
A|-----------------------------|
E|-----------------------------|

Chords in the background:

e|-------------------------------------------------| x4
B|-------------------------------------------------|
G|-3-3-3-3-3-3-------------5-5-5-5-5-5-------------|
D|-3-3-3-3-3-3-5-5-5-5-5-5-5-5-5-5-5-5-3-3-3-3-3-3-|
A|-1-1-1-1-1-1-5-5-5-5-5-5-3-3-3-3-3-3-3-3-3-3-3-3-|
E|-------------3-3-3-3-3-3-------------1-1-1-1-1-1-|


[Chorus]

e|-------------------------------------------------| x4
B|-------------------------------------------------|
G|-3-3-3-3-3-3-------------5-5-5-5-5-5-------------|
D|-3-3-3-3-3-3-5-5-5-5-5-5-5-5-5-5-5-5-3-3-3-3-3-3-|
A|-1-1-1-1-1-1-5-5-5-5-5-5-3-3-3-3-3-3-3-3-3-3-3-3-|
E|-------------3-3-3-3-3-3-------------1-1-1-1-1-1-|            
Submit corrections


        Am 180  lessons Hard to play? Try these video lessons and learn fast Am 180  lessons
        
↑ Back to top | Tablatures and chords for acoustic guitar and electric guitar, ukulele, drums are parodies/interpretations of the original songs. You may use it for private study, scholarship, research or language learning purposes only