Home » G » Grandaddy »

Grandaddy - A Lost Machine Chords

Artists:  A B C D E F G H I J K L M N O P Q R S T U V W X Y Z # 

A Lost Machine Chords

(ver. 1) Click to play this song!
Grandaddy
[Piano intro] x2
             C                         Am                        
e|--------------------------|--0----------------------|
B|--1---------1--3-----1----|--------3-----1-----0----|
G|---------0----------------|-------------------------|
D|-----2------------2-----2-|-----2-----2-----2-----2-|
A|--3------------3----------|--3----------------------|
E|--------------------------|-------------------------|
            C                         Am
e|--------------------------|--0----------------------|
B|--1--------1--3-----1-----|--------0-----1-----3----|
G|--------2-----------------|-------------------------|
D|-----2-----------2-----2--|-----2-----2-----2----2--|
A|--0-----------0-----------|--0----------------------|
E|--------------------------|-------------------------|

[Verse]
Am
Surveillance audio recorder in a dried up creek
E
and we're headed to the temporary shelter at the roller rink
Dm                                           G
Every woman and child and man in the canyon land
        F                                      C    Cm7
in a trance and wandering around in the canyon land 

Am
The airplane station is a pretty good place to hide 
E
live old time music and it's warm inside
Dm                                           G
Every woman and child and man in the canyon land
        F                                      C    Cm7
in a trance and wandering around in the canyon land

Am 
Antique photos of celebrities
E 
Samsung black and white fade away qualities
Dm                                           G
Every woman and child and man in the canyon land
       F                                       C    Cm7
in a trance and wandering about in the canyon land

Am 
Surveillance video recorder hidden in a tree
E 
you and I are on a lawn and it's focusing in on me 
Dm                              G
every woman and child and man 
       F                                       C    Cm7   C
in a trance and wandering around in the canyon land

[Chorus]
C                                    Cm7
Everything about us is a lost machine 
Am
Everything about us is a lost machine
F                                D     G
Everything about we is a far out dream
C                             G    Em
Everything about us is a lost machine

C                                    Cm7
Everything about us is a lost machine 
Am
Everything about us is a lost machine
F                                 D    G
Everything about we is a far out dream
C                                 G Em
Everything about us is a lost machine

             C                         Am                        
e|--------------------------|--0----------------------|
B|--1---------1--3-----1----|--------3-----1-----0----|
G|---------0----------------|-------------------------|
D|-----2------------2-----2-|-----2-----2-----2-----2-|
A|--3------------3----------|--3----------------------|
E|--------------------------|-------------------------|
            C                         Am
e|--------------------------|--0----------------------|
B|--1--------1--3-----1-----|--------0-----1-----3----|
G|--------2-----------------|-------------------------|
D|-----2-----------2-----2--|-----2-----2-----2----2--|
A|--0-----------0-----------|--0----------------------|
E|--------------------------|-------------------------|            
Submit corrections

↑ Back to top | Tablatures and chords for acoustic guitar and electric guitar, ukulele, drums are parodies/interpretations of the original songs. You may use it for private study, scholarship, research or language learning purposes only