Home » G » Gospel Music »

Gospel Music - I Have Decided To Follow Jesus Tabs

Artists:  A B C D E F G H I J K L M N O P Q R S T U V W X Y Z # 

I Have Decided To Follow Jesus Tabs

(ver. 1) Click to play this song!
Gospel Music
Tuning: standard

e|-----------------------------------------------------------------------|
B|----------------------------------------------------1---1---1----------|
G|---------------0-----0-----0--2--0-------------------------------------|
D|----------2--------------------------2---------------------------------|
A|---3---3--------------------------------3------------------------------|
E|-----------------------------------------------------------------------|
     I have de- cid- ed      To fol-low Je-sus,      I have de-cid-
e|-----------------------------------------------------------------------|
B|---1-----1----1----3---1-----------------------------------------------|
G|----------------------------------2---------0--------------------------|
D|----------------------------------------------------------0--2---0-----|
A|----------------------------------------------------3---3--------------|
E|-----------------------------------------------------------------------|
        -ed            to        fol-low   Je-sus,   I have de-cid-ed
e|-----------------------------------------------------------------------|
B|---0---2---0-----------------------------------------------------------|
G|---------------2-------------0--2--0-----------------------------------|
D|------------------3--------------------2---------------0----0----------|
A|---------------------------------------------------3------------3------|
E|-----------------------------------------------------------------------|
     to fol-low Je-sus,       no turning back,    no turning back.            
Submit corrections

↑ Back to top | Tablatures and chords for acoustic guitar and electric guitar, ukulele, drums are parodies/interpretations of the original songs. You may use it for private study, scholarship, research or language learning purposes only