» » »

Gorillaz - Sorcererz Chords

Artists:  A B C D E F G H I J K L M N O P Q R S T U V W X Y Z # 

Sorcererz Chords

(ver. 1) Click to play this song!
Gorillaz
 Rating:
4.3/5 (22 votes)

 Sorcererz lessons Tabs too difficult? Try these video lessons and learn fast
 
                INTRO:

Am - Am

Am - G

Am - Am

Am - G


Riff:

           F X 2                     G X 2
E:---------------------------------------------------------------------------|
B|---------------1-(3)-1-------------------3-(5)-3---------------------------|
G|---------2------------------------4----------------------------------------|
D|------3------------------------5-------------------------------------------|
A|---3--------3---------------5--------5-------------------------------------|
E|---------------------------------------------------------------------------|

           F X 2                    G
E:---------------------------------------------------------------------------|
B|---------------1-(3)-1-------------------3-5-5-6-5-3---3-------------------|
G|---------2------------------------4------------------5---------------------|
D|------3------------------------5-------------------------------------------|
A|---3--------3---------------5--------5-------------------------------------|
E|---------------------------------------------------------------------------|




[Verse 1: 2-D]

F

Hey
                       G          F
What is this droning - I hear it, then

        G
Over on me


[Chorus: 2-D]
          F
Everybody cool down
          F
Everybody see yourself
          G
Everybody on time

On time
          F
Everybody hold on
          F                G
Everybody hold on to your inner visions


[Verse 2: 2-D]
F
Hey
                       G          F
What is this droning - I hear it, then
        G
Over on me


[Chorus: 2-D]
          F
Everybody cool down
          F
Everybody see yourself
          G
Everybody on time

On time
          F
Everybody mining
          F                 G
Everybody mining their own inner visions

          F
Everybody lie down
          F
Everybody cool down
          G
Everybody on time

On time
          F
Everybody hold on
          F               G
Everybody hold on to your inner visions


[Choir]

(vocalization)

F
Hold on
         G
To hope, yeah


[Outro: 2-D]

F F G F F G F F G F F G            
Submit corrections


        Sorcererz lessons Hard to play? Try these video lessons and learn fast Sorcererz lessons
        
↑ Back to top | Tablatures and chords for acoustic guitar and electric guitar, ukulele, drums are parodies/interpretations of the original songs. You may use it for private study, scholarship, research or language learning purposes only