» » »

Gorillaz - Re - Hash Bass

Artists:  A B C D E F G H I J K L M N O P Q R S T U V W X Y Z # 

Re - Hash Bass

(ver. 1) Click to play this song!
Gorillaz
 Rating:
4/5 (4 votes)

 Re - Hash lessons Tabs too difficult? Try these video lessons and learn fast
 
                Re-Hash from the album Gorillaz.

Do these two riffs for most of the song:

Riff 1:
G|----------------|----------------|
D|----------------|----------------|
A|--444-0---5204--|-444-0----------|
E|0-------0-------|0-------0-0-2-4-|

Riff 2:
G|----------------|----------------|
D|----------------|----------------|
A|--444-0---5204--|-444-0----------|
E|----------------|--------0-0-2-4-|

Every so often do this:

G|----------------|
D|----------------|
A|----------------|
E|-17/0-----------|

Play that^ at 0:56, 1:44, 2:52, 3:05, 3:15 and 3:25.
            
Submit corrections


        Re - Hash lessons Hard to play? Try these video lessons and learn fast Re - Hash lessons
        
↑ Back to top | Tablatures and chords for acoustic guitar and electric guitar, ukulele, drums are parodies/interpretations of the original songs. You may use it for private study, scholarship, research or language learning purposes only