» » »

Gorillaz - Plastic Beach Tabs

Artists:  A B C D E F G H I J K L M N O P Q R S T U V W X Y Z # 

Plastic Beach Tabs

(ver. 1) Click to play this song!
Gorillaz
 Rating:
4/5 (4 votes)

 Plastic Beach lessons Tabs too difficult? Try these video lessons and learn fast
 
                -----------------------------------------------------------------
Plastic Beach- Gorillaz
-----------------------------------------------------------------
Tuning: Standard
  (Bm)          (G)     (F#m)       (E)          (F#m) (E)
E|---------------------------------------------------------------|
B|---------------------------------------------------------------|
G|---------------------------------------------------------------|
D|---------0-2-4-2-------------0-2-4-2~-------0-2-4-4~-2-2~------|
A|--2~---2-----------2-2~----2--------------2--------------------|
E|---------------------------------------------------------------|
        (F#)        (Bm)          (G) (E)     (F#m)
E|---------------------------------------------------------------|
B|---------------------------------------------------------------|
G|---------------------------------------------------------------|
D|-0-2-2/4~------------------0-2-4-------------------------------|
A|-----------------0-2~----2--------------------------0---0-2----|
E|---------------2--------------------(0)--0-1-2~-------2--------|

Then repeat Bm and E until the end of the song.
Please Rate and Comment, this is my first tab and I learned by ear.
Peace.
            
Submit corrections


        Plastic Beach lessons Hard to play? Try these video lessons and learn fast Plastic Beach lessons
        
↑ Back to top | Tablatures and chords for acoustic guitar and electric guitar, ukulele, drums are parodies/interpretations of the original songs. You may use it for private study, scholarship, research or language learning purposes only