» » »

Gorillaz - Out Of Body Bass

Artists:  A B C D E F G H I J K L M N O P Q R S T U V W X Y Z # 

Out Of Body Bass

(ver. 1) Click to play this song!
Gorillaz
 Rating:
4.2/5 (30 votes)


 Out Of Body  lessons Tabs too difficult? Try these video lessons and learn fast
 
                [Verse 1] 
(0.32)
G|----------------|----------------|----------------|----------------|
D|----------------|----------------|----------------|----------------|
A|-3---3---1--3---|-3---3---1--3---|-3---3---1--3---|-3---3---3---3--|
E|----------------|----------------|----------------|----------------|

G|----------------|----------------|----------------|----------------|
D|----------------|----------------|----------------|----------------|
A|-3---3---1--3---|-3---3---1--3---|-3---3---1--3---|-3---3---3------|
E|----------------|----------------|----------------|----------------|

G|----------------|----------------|----------------|----------------|
D|----------------|----------------|----------------|----------------|
A|----------------|-3---3---1--3---|-3---3---1--3---|-3---3---3---3--|
E|----------------|----------------|----------------|----------------|

G|----------------|----------------|----------------|----------------|
D|----------------|----------------|----------------|----------------|
A|-3---3---1--3---|-3---3---1--3---|-3---3----------|----------------|
E|----------------|----------------|----------------|----------------|

[Chorus 1] 
(1.03) 
[Bass doesn't play]
                                                                      (x2)
G|----------------|----------------|----------------|----------------|
D|----------------|----------------|----------------|----------------|
A|----------------|----------------|----------------|----------------|
E|----------------|----------------|----------------|----------------|

[Verse 2] 
(1.19)
G|----------------|----------------|----------------|----------------|
D|----------------|----------------|----------------|----------------|
A|-3---3---1--3---|-3---3---1--3---|-3---3---1--3---|-3---3---3---3--|
E|----------------|----------------|----------------|----------------|

G|----------------|----------------|----------------|----------------|
D|----------------|----------------|----------------|----------------|
A|-3---3---1--3---|-3---3---1--3---|-3---3----------|---------3---3--|
E|----------------|----------------|----------------|----------------|

[Chorus 2] 
(1.36) 
[Bass doesn't play]
                                                                      (x2)
G|----------------|----------------|----------------|----------------|
D|----------------|----------------|----------------|----------------|
A|----------------|----------------|----------------|----------------|
E|----------------|----------------|----------------|----------------|

[Bridge] 
(Party sounds) 
(1.51)
(Repeat 4 times)
G|----------------|----------------|----------------|----------------|
D|----------------|----------------|----------------|----------------|
A|-3---3---1--3---|-3---3---1--3---|-3---3---1--3---|-3---3---3---3--|
E|----------------|----------------|----------------|----------------|
                                                                       (x4)
G|----------------|----------------|----------------|----------------|
D|----------------|----------------|----------------|----------------|
A|-3---3---1--3---|-3---3---1--3---|-3---3---1--3---|-3---3---3------|
E|----------------|----------------|----------------|----------------|

(5th time in bridge)
(2.55)
G|----------------|----------------|----------------|----------------|
D|----------------|----------------|----------------|----------------|
A|-3---3---1--3---|-3---3---1--3---|-3---3---1--3---|-3---3---3---3--|
E|----------------|----------------|----------------|----------------|

G|----------------|----------------|----------------|----------------|
D|----------------|----------------|----------------|----------------|
A|-3---3---1--3---|-3---3---1--3---|----------------|----------------|
E|----------------|----------------|----------------|----------------|

(2D/Damian Albarn Verse)
(3.11)
G|----------------|----------------|----------------|----------------|
D|----------------|----------------|----------------|----------------|
A|-3---3---1--3---|-3---3---1--3---|-3---3---1--3---|-3---3---3---3--|
E|----------------|----------------|----------------|----------------|

G|----------------|----------------|----------------|----------------|
D|----------------|----------------|----------------|----------------|
A|-3---3---1--3---|-3---3---1--3---|-3---3---1--3---|----------------|
E|----------------|----------------|----------------|----------------|

[Outro] 
(3.28) 
(Bass doesn't play)                                                                     
G|----------------|----------------|----------------|----------------|
D|----------------|----------------|----------------|----------------|
A|----------------|----------------|----------------|----------------|
E|----------------|----------------|----------------|----------------|            
Submit corrections



        Out Of Body  lessons Hard to play? Try these video lessons and learn fast Out Of Body  lessons
        
↑ Back to top | Tablatures and chords for acoustic guitar and electric guitar, ukulele, drums are parodies/interpretations of the original songs. You may use it for private study, scholarship, research or language learning purposes only