Home » G » Gorillaz »

Gorillaz - Momentary Bliss Bass

Artists:  A B C D E F G H I J K L M N O P Q R S T U V W X Y Z # 

Momentary Bliss Bass

(ver. 1) Click to play this song!
Gorillaz
[Intro]
 
G|---------------------------------------------------------------------------|
D|---------------------------------------------------------------------------| x2
A|---------------------------------------------------------------------------|
E|-5-------------0--3-----4--------------------------------------------------|
 
 
 
[Chorus]
 
 
G|---------------------------------------------------------------------------|
D|---------------------------------------------------------------------------|  x2
A|----------------5--------5-------------------------------------------------|
E|-5------5---5----------------0--0------------------------------------------|
 
 
[Verse 1]
 
G|---------------------------------------------------------------------------|
D|---------------------------------------------------------------------------|
A|----------------------7----------------------------------------------------|
E|---0-0--5--0---3---0--------0---0--5--0--5---------------------------------|
 
G|---------------------------------------------------------------------------|
D|--------------19--------------17-------------------19------------19--------|  x2
A|----------------------19----------------------------------19---------------|
E|-17---17---------------------------------17-17-----------------------------|
 
 
[Pre Refain]
 
G|---------------------------------------------------------------------------|
D|---------------------------------------------------------------------------|
A|---------------------------------------------------------------------------|  x3
E|-5-5-5-5-5-5-5---10-10-10-10-10-10-----------------------------------------|
 
G|---------------------------------------------------------------------------|
D|---------------------------------------------------------------------------|
A|---------------------------------------------------------------------------|
E|-7-7-7-7-7-7-6-6-6-6-6-6---------------------------------------------------|
 
 
G|---------------------------------------------------------------------------|
D|---------------------------------------------------------------------------|
A|---------------------------------------------------------------------------|  x3
E|-5-5-5-5-5-5-5---10-10-10-10-10-10-----------------------------------------|
 
G|---------------------------------------------------------------------------|
D|---------------------------------------------------------------------------|
A|---------------------------------------------------------------------------|
E|-7-7-7-7-7-7-6-6-6-6-6-6---------------------------------------------------|
 
 
 
 
[Bridge]
 
G|---------------------------------------------------------------------------|
D|--------------19--------------17-------------------19------------19--------|  x4
A|----------------------19----------------------------------19---------------|
E|-17---17---------------------------------17-17-----------------------------|
 
 
 
[Refain]
 
G|---------------------------------------------------------------------------|
D|---------------------------------------------------------------------------|
A|---------------------------------------------------------------------------|  x2
E|-5-5-5-5-5-5-5---10-10-10-10-10-10-----------------------------------------|
 
G|---------------------------------------------------------------------------|
D|---------------------------------------------------------------------------|
A|---------------------------------------------------------------------------|
E|-7-7-7-7-7-7-6-6-6-6-6-6---------------------------------------------------|
 
 
[Interlude]
G|---------------------------------------------------------------------------|
D|---------------------------------------------------------------------------|
A|----------------5--------5-------------------------------------------------|
E|-5------5---5----------------0--0------------------------------------------|
 
 
[Chorus]
 
 
G|---------------------------------------------------------------------------|
D|---------------------------------------------------------------------------|  x2
A|----------------5--------5-------------------------------------------------|
E|-5------5---5----------------0--0------------------------------------------|
            
Submit corrections

↑ Back to top | Tablatures and chords for acoustic guitar and electric guitar, ukulele, drums are parodies/interpretations of the original songs. You may use it for private study, scholarship, research or language learning purposes only