» » »

Gorillaz - Idaho Tabs

Artists:  A B C D E F G H I J K L M N O P Q R S T U V W X Y Z # 

Idaho Tabs

(ver. 1) Click to play this song!
Gorillaz
 Rating:
4.3/5 (29 votes)

 Idaho lessons Tabs too difficult? Try these video lessons and learn fast
 
                [Intro + Verse]

  (F#)
e|-----------------------------------------------------------------|
B|-----------------------------------------------------------------|
G|---3----------3----------3----------3----------3----------3------|
D|--------4---------4-----------4----------4----------4---------4--|
A|------4---------4-----------4----------4----------4---------4----|
E|-2---------2----------2-----------2----------2---------2---------|

  (B)                  (G#)
e|-----------------------------------------------------------|
B|-----------------------------------------------------------|
G|---4--------4---------5----------5--------5---------5------|
D|-------4--------4---------6----------6--------6---------6--|
A|-2---2----2---2---------6----------6--------6---------6----|
E|--------------------4---------4---------4--------4---------|

  (F#)                 (B)                (C#)
e|----------------------------------------------------------|
B|----------------------------------------------------------|
G|----3--------3---------4--------4---------6--------6------|
D|--------4--------4---------4--------4---------6--------6--|
A|------4--------4-----2---2----2---2-----4---4----4---4----|
E|--2--------2----------------------------------------------|

  (F#)                                  (B)
e|----------------------------------------------------------|
B|----------------------------------------------------------|
G|---3--------3--------3--------3---------4--------4--------|
D|-------4--------4--------4--------4---------4--------4----|
A|-----4--------4--------4--------4-----2---2----2---2------|
E|-2--------2--------2--------2-----------------------------|

  (G#)                                 (F#)               (B)
e|---------------------------------------------------------------------------|
B|---------------------------------------------------------------------------|
G|---5--------5--------5--------5--------3--------3---------4--------4-------|
D|-------6--------6--------6--------6--------4--------4---------4--------4---|
A|-----6--------6--------6--------6--------4--------4-----2---2----2---2-----|
E|-4--------4--------4--------4--------2--------2----------------------------|

   (C#)              (D)
e|------------------------------------------------------|
B|------------------------------------------------------|
G|---6--------6--------7--------7--------7--------7-----|
D|-------6--------6--------7--------7--------7--------7-|
A|-4---4----4---4----5---5----5---5----5---5----5---5---|
E|------------------------------------------------------|

   (F#)                                 (C#)
e|---------------------------------------------------------------------------|
B|---------------------------------------------------------------------------|
G|----3--------3--------3--------3--------6--------6--------6--------6-------|
D|--------4--------4--------4--------4--------6--------6--------6--------6---|
A|------4--------4--------4--------4----4---4----4---4----4---4----4---4-----|
E|--2--------2--------2--------2---------------------------------------------|

            
Submit corrections


        Idaho lessons Hard to play? Try these video lessons and learn fast Idaho lessons
        
↑ Back to top | Tablatures and chords for acoustic guitar and electric guitar, ukulele, drums are parodies/interpretations of the original songs. You may use it for private study, scholarship, research or language learning purposes only