» » »

Gorillaz - Hip Albatross Tabs

Artists:  A B C D E F G H I J K L M N O P Q R S T U V W X Y Z # 

Hip Albatross Tabs

(ver. 1) Click to play this song!
Gorillaz
 Rating:
4.3/5 (16 votes)

 Hip Albatross lessons Tabs too difficult? Try these video lessons and learn fast
 
                [Intro]

e|---------------------------------------------------------------------------|
B|---------------------------------------------------------------------------|
G|----6\4-6h8-8-4h6-4-4/6\2-2-4h6-4---6\2-2-4---2-4-6-2---4/6\2-2/4----------|
D|---------------------------------------------------------------------------|
A|---------------------------------------------------------------------------|
E|---------------------------------------------------------------------------|

e|---------------------------------------------------------------------------|
B|---------------------------------------------------------------------------|
G|-2-4-6-2---4-6-2/4-2/4-6-2-4---4-6-2-4-4/6\2-2-4/6-2---4/6-4/6-2-4---------|
D|---------------------------------------------------------------------------|
A|---------------------------------------------------------------------------|
E|---------------------------------------------------------------------------|


[Verse 1]

e|---------------------------------------------------------------------------|
B|---------------------------------------------------------------------------|
G|-4/6\4-4-2-4-2-4/6\2-2--6-2/4--4/6\4-4-2-----------------------------------|
D|---------------------------------------------------------------------------|
A|-------------------------------------------5-7\6--4-5--5-7--4-5--2-3----2--|
E|------------------------------------------3------2----3----2----1----1-0---|

e|---------------------------------------------------------------------------|
B|-------------------12-10---------------------------------------------------|
G|-4/6-2-4--6-8-4-6-2-----2/6-4-2-2-4--4/6\2-2-4-6-2-4-6\2-2-4-6-4-2---------|
D|---------------------------------------------------------------------------|
A|---------------------------------------------------------------------------|
E|---------------------------------------------------------------------------|

e|---------------------------------------------------------------------------|
B|---------------------------------------------------------------------------|
G|-------------------------------4/6-2-4--6-8-4-6-2-4-6-4--------------------|
D|---------------------------------------------------------------------------|
A|--5-7\6--4-5--5-7--4-5--3----2---------------------------------------------|
E|-3------2----3----2----1--1-0----------------------------------------------|


[Outro]

e|---------------------------------------------------------------------------|
B|---------------------------------------------------------------------------|
G|-4/6-4-2--2-4-6-2-4-2--------------------------------4/6-2-4--4-6-2-4-2----|
D|---------------------------------------------------------------------------|
A|-----------------------5-7\6--4-5--5-7--4-5--3----2------------------------|
E|---------5------------3------2----3----2----1--1-0-----------7-------------|

e|---------------------------------------------------------------------------|
B|---------------------------------------------------------------------------|
G|----2-6-2-4-2-4------2/6-2-4-2-4----2-6-2-4-2-4----------------------------|
D|---------------------------------------------------------------------------|
A|---------------------------------------------------------------------------|
E|-0-5------------0-0-7------------0-5---------------------------------------|

            
Submit corrections


        Hip Albatross lessons Hard to play? Try these video lessons and learn fast Hip Albatross lessons
        
↑ Back to top | Tablatures and chords for acoustic guitar and electric guitar, ukulele, drums are parodies/interpretations of the original songs. You may use it for private study, scholarship, research or language learning purposes only