» » »

Gorillaz - Hillbilly Man Tabs

Artists:  A B C D E F G H I J K L M N O P Q R S T U V W X Y Z # 

Hillbilly Man Tabs

(ver. 1) Click to play this song!
Gorillaz
 Rating:
4.3/5 (28 votes)

 Hillbilly Man lessons Tabs too difficult? Try these video lessons and learn fast
 
                GUITAR I (high strings):

  Drive away,                   As in lonesome sound,
  Like a real straight shooter, Three lanes full,
e|----------------5--3--2--0------------------5--2--5--2-5-------|
B|-3--3-3-5--3-5---------------3--3-3-5--3-5---------------------|
G|---------------------------------------------------------------|
D|---------------------------------------------------------------|
A|---------------------------------------------------------------|
E|---------------------------------------------------------------|

GUITAR II (low strings):

e|---------------------------------------|
B|---------------------------------------|
G|----------------2--2/4--4p2p0----------|
D|-2--2-2--2-2-0-------------------------|
A|---------------------------------------|
E|---------------------------------------|
                                repeat x2

Simple and straight forward, not necessarily completely correct due to the somewhat muddiness of the recording
(especially on the low ends) but I think its about there. Now, as for the compromise, I like to play it like 
this, personally:

  Drive away,            As in lonesome sound,
  Like a real straight.. Three lanes full,

e|------0---0--5-3-2-0--------0---0--5-----5---5-----------------|
B|-3-3----3--------------3-3----3-------7-----7------------------|
G|---------------------------------------------------------------|
D|-2--2--------0-----0---2--2--------0-----0---------------------|
A|---------------------------------------------------------------|
E|---------------------------------------------------------------|            
Submit corrections


        Hillbilly Man lessons Hard to play? Try these video lessons and learn fast Hillbilly Man lessons
        
↑ Back to top | Tablatures and chords for acoustic guitar and electric guitar, ukulele, drums are parodies/interpretations of the original songs. You may use it for private study, scholarship, research or language learning purposes only