» » »

Gorillaz - Five Fourths Tabs

Artists:  A B C D E F G H I J K L M N O P Q R S T U V W X Y Z # 

Five Fourths Tabs

(ver. 1) Click to play this song!
Gorillaz
 Rating:
4/5 (4 votes)

 Five Fourths lessons Tabs too difficult? Try these video lessons and learn fast
 
                Gorillaz 
5/4 five four


------------------------------------------------------------
----------------------------------4--4--4------------------
----5--5----3--3--3----5--5----3--3--3-------------------
----5--5----3--3--3----5--5----1--1--1-------------------
----3--3----1--1--1----3--3-------------------------------
------------------------------------------------------------


Its pretty much like this just repeating through the whole thing until you get to the chorus.
The chorus is just like this repeating its pretty easy.

--------------------
--------------------
--------------------
-5--5--5--5--5--5-
-5--5--5--5--5--5-
-3--3--3--3--3--3-


lyrics
5/4
Magic for me
Magic make no sound
It good for me
It good for me underground
Magic on me
Really got me down
Invade the city
It make my heart beat no sound
Beat no sound
Beat no sound (ooh ooh ooh ooh)
Beat no sound
Beat no sound
Beat no sound (ooh ooh ooh ooh)
And let me tell myself
Tell on
She turned my dad on
She turned my dad on
Dad on
Dad on!!!
Magic for me
Magic get me through
We pledge it money
People seem to walk through you
Magic's funny
Magic get me through
All good for me
When people seem to always walk through you
Walk through you
Walk through you (ooh ooh ooh ooh)
Walk through you
Walk through you
Walk through you (ooh ooh ooh ooh)
Walk through you
Walk through you
And let me tell myself
Tell on
She turned my dad on
She turned my dad on
Dad on
Dad on
She made me kill myself
Come on
Come on
She turned my dad on
Come on
She turned my dad on
Come on
She turned my dad on
She turned my dad on
Dad on
Dad on
            
Submit corrections


        Five Fourths lessons Hard to play? Try these video lessons and learn fast Five Fourths lessons
        
↑ Back to top | Tablatures and chords for acoustic guitar and electric guitar, ukulele, drums are parodies/interpretations of the original songs. You may use it for private study, scholarship, research or language learning purposes only