» » »

Gorillaz - Crystalised The Xx Cover Jthunder Mix Tabs

Artists:  A B C D E F G H I J K L M N O P Q R S T U V W X Y Z # 

Crystalised The Xx Cover Jthunder Mix Tabs

(ver. 1) Click to play this song!
Gorillaz
 Rating:
4.1/5 (31 vote)

 Crystalised The Xx Cover Jthunder Mix  lessons Tabs too difficult? Try these video lessons and learn fast
 
                intro
------------------------|-----------------------------|
------------------------|-----------------------------|
------------------------|-----------------------------|
--------------------------------|-----------------------------|
---9-9-8-1-4-4-4-5-7-5-7--------|--9-9-8-1-4-4-4-5-7-5-7-------|
-7-----------------------7--7/10|-7---------------------7--7/10|

and then

you've applied the pressure... to have me crystallized
----------------|
----------------|
----------------|
----------------|
----------------|
7(x8)10(x4)9(x4)|

chorus
and then you repeat like that until the "ahh,ahh,ahh,ahh,ahh"(you know that part that gives you the gooses)
that's when you switch to the dank
----------|------|------|
----------|------|------|
----------|------|------|
----------|------|------| (I believe that this part is done twice)
-7-7-7-7-7|-5-5-5|-4-4-4|
7-7-7-7-7-|5-5-5-|4-4-4-|

then you repeat back into the part where 2-D seems a bit sad, but hey if you've gotten here you can just keep 
doing the same thing 'till the end

            
Submit corrections


        Crystalised The Xx Cover Jthunder Mix  lessons Hard to play? Try these video lessons and learn fast Crystalised The Xx Cover Jthunder Mix  lessons
        
↑ Back to top | Tablatures and chords for acoustic guitar and electric guitar, ukulele, drums are parodies/interpretations of the original songs. You may use it for private study, scholarship, research or language learning purposes only