» » »

Gorillaz - 54 Tabs

Artists:  A B C D E F G H I J K L M N O P Q R S T U V W X Y Z # 

54 Tabs

(ver. 1) Click to play this song!
Gorillaz
 Rating:
4.3/5 (21 vote)

 54  lessons Tabs too difficult? Try these video lessons and learn fast
 
                [Intro]
(Guitar 1)
e|----------------------------------|
B|----------------------------------|
G|------------5-5-5-----------------|
D|------5-5---3-3-3----5-5---8-8-8--|
A|------3-3------------3-3---6-6-6--|
E|----------------------------------|

(Guitar 2)
e|----------------------------------|
B|----------------------------------|
G|----------------------------------|
D|------5-5---3-3-3----5-5---8-8-8--|
A|------3-3---3-3-3----3-3---8-8-8--|
E|------3-3---1-1-1----3-3---6-6-6--|            
Submit corrections


        54  lessons Hard to play? Try these video lessons and learn fast 54  lessons
        
↑ Back to top | Tablatures and chords for acoustic guitar and electric guitar, ukulele, drums are parodies/interpretations of the original songs. You may use it for private study, scholarship, research or language learning purposes only