Home » G » Gorilla Biscuits »

Gorilla Biscuits - New Directiob Tabs

Artists:  A B C D E F G H I J K L M N O P Q R S T U V W X Y Z # 

New Directiob Tabs

(ver. 1) Click to play this song!
Gorilla Biscuits
 Rating:
4/5 (4 votes)
                x's= palm-muted

Intro 1x
e-----------------------------------------------------------------
B-----------------------------------------------------------------
G-----------------------------------------------------------------
D-xx4--------------------4-----------77---------------------------
A-xx4--------------------4-----------77---------------------------
E-xx2--------------------2-----------55---------------------------

Verse 4x
e-----------------------------------------------------------------
B-----------------------------------------------------------------
G-----------------------------------------------------------------
D-4xxx4xxx4xxx4xxx7777777-----------------------------------------
A-4xxx4xxx4xxx4xxx7777777-----------------------------------------
E-2xxx2xxx2xxx2xxx5555555-----------------------------------------

Chorus 4x
e-----------------------------------------------------------------
B-----------------------------------------------------------------
G-66666666------5555----------------------------------------------
D-66666666-7777-5555----------------------------------------------
A-44444444-7777-7777----------------------------------------------
E----------5555---------------------------------------------------

e-----------------------------------------------------------------
B-----------------------------------------------------------------
G-66666666--------77-6--------------------------------------------
D-66666666-5555-7-77-6--------------------------------------------
A-44444444-5555-7-55-4--------------------------------------------
E----------7777-5-------------------------------------------------

e-----------------------------------------------------------------
B-----------------------------------------------------------------
G-66666666------5555----------------------------------------------
D-66666666-7777-5555----------------------------------------------
A-44444444-7777-7777----------------------------------------------
E----------5555---------------------------------------------------

e-----------------------------------------------------------------
B-----------------------------------------------------------------
G-66666666-----------7-6------------------------------------------
D-66666666-5555-7777-7-6------------------------------------------
A-44444444-5555-7777-5-4------------------------------------------
E----------7777-5555----------------------------------------------

Verse 
Chorus
Breakdown

e-----------------------------------------------------------------
B-----------------------------------------------------------------
G-xxxx6xx6xx6xxxx6xx4xx2------------------------------------------
D-xxxx6xx6xx6xxxx6xx4xx2------------------------------------------
A-xxxx4xx4xx4xxxx4xx2xx0------------------------------------------
E-----------------------------------------------------------------

End

e-----------------------------------------------------------------
B-----------------------------------------------------------------
G-66666-----------------------------------------------------------
D-66666-----------------------------------------------------------
A-44444-----------------------------------------------------------
E-----------------------------------------------------------------
            
Submit corrections

↑ Back to top | Tablatures and chords for acoustic guitar and electric guitar, ukulele, drums are parodies/interpretations of the original songs. You may use it for private study, scholarship, research or language learning purposes only