Home » G » Gordon Lightfoot »

Gordon Lightfoot - Bitter Green Tabs

Artists:  A B C D E F G H I J K L M N O P Q R S T U V W X Y Z # 

Bitter Green Tabs

(ver. 1) Click to play this song!
Gordon Lightfoot
[Intro]

e|------------------------------------------------------------------------------------|
B|-------3------------3----------3----------------------------------------------------|
G|----2---2-2------4-----3----4----3--------------------------------------------------|
D|---4-----4------2-----2----2----2---------------------------------------------------|
A|--0---0-------0----0------0---0-----------------------------------------------------|
E|------------------------------------------------------------------------------------|


[Verse]

        Em7/A
e|-------------------------------------------------------------------------------------|
B|--------3-------------3-------------3-------------3-------------5-------------5------|
G|----4-------2-----4-------2-----4-------4-----4-------4-----6-------6-----6-------6--|
D|--2-------3-----2-------3-----2-------2-----2-------2-----4------ 4-----4-------4----|
A|0-----0-------0-----0-------0-----0-------0-----0-------0-----0-------0---- 0--------|
E|-------------------------------------------------------------------------------------|

e|---------------------------------------------------------------------------------------|
B|--------3-------------3-------------3-------------5-------------5----------------------|
G|----4-------3-----4-------4-----4-------4-----6-------6-----6-------6------------------|
D|--2-------2-----2-------2-----2-------2-----4-------4-----4-------4--------------------|
A|0-----0-------0-----0-------0-----0-------0-----0-------0-----0------------------------|
E|---------------------------------------------------------------------------------------|

e----------------------------------------------------------|
B---------3-------------3-------------3-------------2------|
G-----4-------4-----4-------4-----4------4------2-------2--|
D---2-------2-----2-------2-----2------2------2-------2----|
A-0-----0-------0-----0-------0-----0-------0-----0--------|
E----------------------------------------------------------|


[Chorus]

e|--------2-------------2---------------------------------------------------------------|
B|----3-------2-----3-------3----------0-------------2-------------0-------------2------|
G|--2-------3-----2-------2--------0-------0-----2-------2-----0-------0-----2-------2--|
D|0-----0------------------------0-------0-----2-------2-----0-------0-----2-------2----|
A|-------------------------------------------0-----0---------------------0-----0--------|
E|--------------2-----2--------3-----3---------------------3-----3----------------------|

e|--------2-------------2------------------2-------------2-------------------------------|
B|----3-------3-----3-------3----------3-------3-----3-------3---------0-----------------|
G|--2-------2-----2-------2----------2-------2-----2-------2-------0-------0-------------|
D|0-----0-------0-----0------------0-----0-----------------------0-------0---------------|
A|-----------------------------------------------4-----4-------2-----2-------------------|
E|---------------------------------------------------------------------------------------|

e---------------------------------------------------0-------------2----------------------|
B---------2-------------0-------------2---------3-------3-----3-------3------------------|
G-----2-------2-----0-------0-----2-------2---2-------2-----2-------2--------------------|
D---2-------2-----0-------0-----2-------2---0-----0-------0-----0------------------------|
A-0-----0---------------------0-----0----------------------------------------------------|
E---------------3-----3------------------------------------------------------------------|


[Interlude]

e|----------------------------------------------------------|
B|----2------2------0------0------1------0------2------2----|
G|--2---2--2---2--0---0--0---0--2---1--0---0--2---2--2---2--|
D|-2---2--2---2--0---0--0---0--3---1--2---0--2---2--2---2---|
A|0--0---0--0-------------------------------0--0---0--0-----|
E|--------------3--3---3--3---1--1---0--3-------------------|


[Outro]

e|----2------2---------------------------------0h2---------------------------|
B|--3---3--3---3-----0------2-------0------2-------3-3-----------------------|
G|-2---2--2---2----0---0--2---2---0---0--2---2----2--2-----------------------|
D|0--0------------0---0--2---2---0---0--2---2--0-----0-----------------------|
A|----------------------0--0-----------0--0----------------------------------|
E|-------2--2----3--3-----------3--3-----------------------------------------|


The whole song is travis picked. Once you figure out the Verse Chords the rest comes 
real easy and then you
Can add hammer-ons and stuff on the D chord.            
Submit corrections

↑ Back to top | Tablatures and chords for acoustic guitar and electric guitar, ukulele, drums are parodies/interpretations of the original songs. You may use it for private study, scholarship, research or language learning purposes only