Home » G » Good Old War »

Good Old War - My Names Sorrow Chords

Artists:  A B C D E F G H I J K L M N O P Q R S T U V W X Y Z # 

My Names Sorrow Chords

(ver. 1) Click to play this song!
Good Old War
e|-----|--------------------------|
B|-1p0-|-3------------------1-0-2-|
G|-----|------0---0-----0--2------|
D|-----|--------------4-----------|
A|-----|--------------------------|
E|-----|--------------------------|

G                     Em
Follow me back like a ride on a train 
Am                           D
Make it hard to remember the cold 
G                                Em
Take care of your money and stay out of the rain
Am                                    D
Your bones could give out when you're old 
G                            Em
I get more of a feeling from words that have truth 
  Am                        D
A feeling like something is wrong 

e|------------------|-2--------------------|
B|-0---3---1---0----|-3------3------5------|
G|-0---4---2---0----|--------4------5------|
D|------------------|---------------5------|
A|------------------|----------------------|
E|------------------|----------------------|

Let the door slide open, let the sunlight in

G                  Am  D    G
Call my name girl, Sorrow


G                       Em
All of the times that I heard you sing 
Am                            D
I hoped there parts there for me
G                                Em
I'd sing all the notes that stay out of your way
Am                            D
We can let all those melodies free 
G                          Em
I think I was meant for an uglier time 
   Am                      D
My harmony's all out of tune 

e|------------------|-2--------------------|
B|-0---3---1---0----|-3------3------5------|
G|-0---4---2---0----|--------4------5------|
D|------------------|---------------5------|
A|------------------|----------------------|
E|------------------|----------------------|
Let the verse slide over let the chorus in

G                  Am  D    G
Call my name girl, Sorrow


G                   Am            Em      C
We'll be out of the dark when the seasons pass
G                    Am         D
But you have to live now or you won't
G                       Am               Em     D 
Put your gloves on your hands, wear your winter skin
G                  Am          D
Cause it's over before you say August
G                       Am       D
All your friends will await your return

e|------------------|-2--------------------|
B|-0---3---1---0----|-3------3------5------|
G|-0---4---2---0----|--------4------5------|
D|------------------|---------------5------|
A|------------------|----------------------|
E|------------------|----------------------|

With the car doors open and the radio on 
G                  Am  D    G
Call my name girl, Sorrow

Sorrow oooo
            
Submit corrections

↑ Back to top | Tablatures and chords for acoustic guitar and electric guitar, ukulele, drums are parodies/interpretations of the original songs. You may use it for private study, scholarship, research or language learning purposes only