» » »

Good Old War - Coney Island Tabs

Artists:  A B C D E F G H I J K L M N O P Q R S T U V W X Y Z # 

Coney Island Tabs

(ver. 1) Click to play this song!
Good Old War
 Rating:
4.6/5 (11 votes)

 Coney Island lessons Tabs too difficult? Try these video lessons and learn fast
 
                
Tuning: Standard: EADGBe (with capo on 5th)

NOTE: 
Play using your thumb plucking the notes 
and your index finger hitting all the 0's on the B & e string, 
they should be played on a down stroke on the first and up on the next. 


Tab is relative to capo. 


Intro/Bridge
e|-----0-0--0-0---0-0----0-0----0-0---0-0----0-0----0-0----------------------|
B|-----1-1--1-1---1-1----1-1----1-1---1-1----1-1----1-1----------------------|
G|---0-----0-----0-----0------0-----0------0------0--------------------------|
D|--4-----4-----3-----3------2-----2------2------2---------------------------|
A|---------------------------------------------------------------------------|
E|---------------------------------------------------------------------------|

Intro continued...
e|-----0-0----0-0----0-0-----0-0----0-0----0-0----0-0----0-0-----------------|
B|-----1-1----1-1----1-1-----1-1----1-1----1-1----1-1----1-1-----------------|
G|---0------0------0--------0-----0------0------0------0---------------------|
D|--4------4------3------2p0-------------------------------------------------|
A|-------------------------------3------3------3------3------2---------------|
E|---------------------------------------------------------------------------|

Verse: X2
e|-----0-0----0-0-----0-0---0-0----0-0----0-0----0-0--------0-0-----0-0-----|
B|-----1-1----1-1-----1-1---1-1----1-1----1-1----1-1--------1-1-----1-1-----|
G|---0------0-------0-----0------0------0------0----------0-------0---------|
D|----------------4-----4------3------3------2------2-----------------------|
A|--3------3------------------------------------------3--0------0-----------|
E|--------------------------------------------------------------------------|

Verse continued...
e|-----0-0------0-0----0-0----0-0----0-0-------------------------------------|
B|-----1-1------1-1----1-1----1-1----1-1-------------------------------------|
G|---0--------0------0------0------0-----------------------------------------|
D|---------------------------------------------------------------------------|
A|--------0h2-------3------3------3-----3-2----------------------------------|
E|--3------------------------------------------------------------------------|

Chorus: x2
e|-----0-0-----0-0----0-0------0-0----0-0----0-0-----0-0---------------------|
B|-----1-1-----1-1----1-1------1-1----1-1----1-1-----1-1---------------------|
G|---0-------0------0--------0------0------0-------0-------------------------|
D|---------------------------------3-----3-------2------2--------------------|
A|--0------0--------------0h2-----------------------------3------------------|
E|-----------------3---------------------------------------------------------|

Chorus continued...
e|-----0-0-----0-0-----0-0------0-0-----0-0----0-0----0-0-----0-0------------|
B|-----1-1-----1-1-----1-1------1-1-----1-1----1-1----1-1-----1-1------------|
G|---0-------0-------0--------0-------0------0------0-------0----------------|
D|---------------------------------------------------------------------------|
A|--0-------0-------------0h2-------3------3------3------3---------3-2-------|
E|-----------------3---------------------------------------------------------|

Outro = play the second part of the chorus...

but replace...
e|-------|
B|-------|
G|-------|
D|-------|
A|-3-2---|
E|-------|

...with....
e|-0-0----|
B|-1-1----|
G|-0-0----|
D|-0-0----|
A|-3-3----|
E|--------|



And that's all folks... Enjoy!
            
Submit corrections


        Coney Island lessons Hard to play? Try these video lessons and learn fast Coney Island lessons
        
↑ Back to top | Tablatures and chords for acoustic guitar and electric guitar, ukulele, drums are parodies/interpretations of the original songs. You may use it for private study, scholarship, research or language learning purposes only