Home » G » Golden Earring »

Golden Earring - Vanilla Queen Unplugged Tabs

Artists:  A B C D E F G H I J K L M N O P Q R S T U V W X Y Z # 

Vanilla Queen Unplugged Tabs

(ver. 1) Click to play this song!
Golden Earring
 Rating:
4/5 (4 votes)
                Gtr I (E A D G B E) - 'George Kooymans - Acoustic Guitar'

 
Intro
  Q=130
  Dm
 4/4
  Gtr I (Ac. Gtr.)
  E E E E E E E E    E   E  E E E E E E   E E E E E E E E   E E E E E E E E
|-1-1-1-1-1-1-1-1-|-(3)-(3)-1-1-0-0-0-0-|-1-1-1-1-1-1-3-3-|-3-3-1-1-0-0-0-0-|
|-3-3-3-3-3-3-3-3-|--3---3--3-3-3-3-3-3-|-3-3-3-3-3-3-3-3-|-3-3-3-3-3-3-3-3-|
|-2-2-2-2-2-2-2-2-|--2---2--2-2-2-2-2-2-|-2-2-2-2-2-2-2-2-|-2-2-2-2-2-2-2-2-|
|-0-0-0-0-0-0-0-0-|--0---0--0-0-0-0-0-0-|-0-0-0-0-0-0-0-0-|-0-0-0-0-0-0-0-0-|
|-----------------|---------------------|-----------------|-----------------|
|-----------------|---------------------|-----------------|-----------------|


  E E E E E E E  E    E E E E E E E E   E E E E E E E E   E E E E E E E E
|-1-1-1-1-1-1-1-(3)-|-3-3-0-0-1-3-1-0-|-1-1-3-3-1-1-0-0-|-1-1-0-0-1-1-0-0-||
|-3-3-3-3-3-3-3--3--|-3-3-3-3-3-3-3-3-|-3-3-3-3-3-3-3-3-|-3-3-3-3-3-3-3-3-||
|-2-2-2-2-2-2-2--2--|-2-2-2-2-2-2-2-2-|-2-2-2-2-2-2-2-2-|-2-2-2-2-2-2-2-2-||
|-0-0-0-0-0-0-0--0--|-0-0-0-0-0-0-0-0-|-0-0-0-0-0-0-0-0-|-0-0-0-0-0-0-0-0-||
|-------------------|-----------------|-----------------|-----------------||
|-------------------|-----------------|-----------------|-----------------||


 1st Verse
  Dm                                  Bbmaj7                          C
  E E E E E E E E   E E E E E E E E   E E E E E E E E   E E E E E E E E
|-1-1-1-1-3-3-3-3-|-3-3-1-0-1-1-0-0-|-5-5-5-5-5-5-5-5-|-5-5-5-5-5-5-5---|
|-3-3-3-3-3-3-3-3-|-3-3-3-3-3-3-3-3-|-6-6-6-6-6-6-6-6-|-6-6-6-6-6-6-6-1-|
|-2-2-2-2-2-2-2-2-|-2-2-2-2-2-2-2-2-|-7-7-7-7-7-7-7-7-|-7-7-7-7-7-7-7-0-|
|-0-0-0-0-0-0-0-0-|-0-0-0-0-0-0-0-0-|-8-8-8-8-8-8-8-8-|-8-8-8-8-8-8-8-2-|
|-----------------|-----------------|-----------------|---------------3-|
|-----------------|-----------------|-----------------|-----------------|


                                      Dm
  E E E E E E E E   E E E E E E E E   E E E E E E E E   E E E E E E E E
|-----------------|-----------------|-1-1-1-3-1-1-1-3-|-1-0-1-3-1-0-1-1-||
|-1-1-1-1-3-3-3-3-|-1-1-0-1-3-1-0-1-|-3-3-3-3-3-3-3-3-|-3-3-3-3-3-3-3-3-||
|-0-0-0-0-0-0-0-0-|-0-0-0-0-0-0-0-0-|-2-2-2-2-2-2-2-2-|-2-2-2-2-2-2-2-2-||
|-2-2-2-2-2-2-2-2-|-2-2-2-2-2-2-2-2-|-0-0-0-0-0-0-0-0-|-0-0-0-0-0-0-0-0-||
|-3-3-3-3-3-3-3-3-|-3-3-3-3-3-3-3-3-|-----------------|-----------------||
|-----------------|-----------------|-----------------|-----------------||


 2nd Verse
                                      Bbmaj7                          C
  E E E E E E E E   E E E E E E E E   E E E E E E E E   E E E E E E E E
|-1-3-1-0-1-3-1-0-|-1-3-1-0-1-3-1-0-|-5-5-5-5-5-5-5-5-|-5-5-5-5-5-5-5---|
|-3-3-3-3-3-3-3-3-|-3-3-3-3-3-3-3-3-|-6-6-6-6-6-6-6-6-|-6-6-6-6-6-6-6-1-|
|-2-2-2-2-2-2-2-2-|-2-2-2-2-2-2-2-2-|-7-7-7-7-7-7-7-7-|-7-7-7-7-7-7-7-0-|
|-0-0-0-0-0-0-0-0-|-0-0-0-0-0-0-0-0-|-8-8-8-8-8-8-8-8-|-8-8-8-8-8-8-8-2-|
|-----------------|-----------------|-----------------|---------------3-|
|-----------------|-----------------|-----------------|-----------------|


                                      Dm
  E E E E E E E E   E E E E E E E E   E E E E E E E E   E E E E E E E E
|-----------------|-----------------|-1-1-3-3-1-1-0-0-|-1-1-0-0-1-1-0-0-||
|-1-1-1-1-1-1-0-0-|-1-1-3-3-1-1-0-0-|-3-3-3-3-3-3-3-3-|-3-3-3-3-3-3-3-3-||
|-0-0-0-0-0-0-0-0-|-0-0-0-0-0-0-0-0-|-2-2-2-2-2-2-2-2-|-2-2-2-2-2-2-2-2-||
|-2-2-2-2-2-2-2-2-|-2-2-2-2-2-2-2-2-|-0-0-0-0-0-0-0-0-|-0-0-0-0-0-0-0-0-||
|-3-3-3-3-3-3-3-3-|-3-3-3-3-3-3-3-3-|-----------------|-----------------||
|-----------------|-----------------|-----------------|-----------------||


 3rd Verse
  Dm                                 Bbmaj7
  Q  E E E E E E   E E  E  E Q  Q    Q  E E E E E E   E E E E E E E E
|-1--3-------1---|---3-(3)---------|-5--5-----5-----|---5-------5-----|
|-3--------3-----|-3---------3--3--|-6--------------|-6-------6-------|
|-2------2-----2-|---------2-------|-7------7-----7-|-------7-------0-|
|-0----0---------|------0----------|-8----8-----8---|-----8---------0-|
|----------------|-----------------|----------------|-------------3---|
|----------------|-----------------|----------------|-----------------|


  C                                   Dm
  E E E E E E E E   E E E E E E E E   Q  E E E E E E   E E E E E E E S S
|-------------3---|-------------0-0-|-1--1-------3---|-----3-----1-1-1-1-||
|-1---1-------1---|-1---1---1---1-1-|-3--3-----3-----|---3-------3-3-3-3-||
|-0-0-------0-----|-------------0-0-|-2------2-------|-2-------2---2-2-2-||
|-2-------2-----2-|---2---2---2-----|-0----0-------0-|-------0-------0-0-||
|-3-----3---------|-----------------|----------------|-------------------||
|-----------------|-----------------|----------------|-------------------||


 4th Verse
                                   Bbmaj7                           C
  Q  E E E E E E   E E E E Q  Q    Q  E E +E  E E E   E E E E E E E E
|-1--1-------3---|---3p1---1-----|-5----5-(5)-5-5-5-|-5-5-5-5-5-5-5-0-|
|-3--3-----3-----|---------3-----|-6----6-(6)-6-6-6-|-6-6-6-6-6-6-6-1-|
|-2--2---2-------|-2-----2----2--|-7--7-7-(7)-7-7-7-|-7-7-7-7-7-7-7-0-|
|-0----0-------0-|------------0--|-8--8-------8-8-8-|-8-8-8-8-8-8-8-2-|
|----------------|---------------|------------------|-----------------|
|----------------|---------------|------------------|-----------------|


                                         Dm
  Q  E E E E +E  E   E E E E  E  E E E   H.      E E   E E E E E E E E
|-0--3-----3-(3)---|-------------------|-1-------1-1-|-3-3-1-1-0-0-1-1-||
|-1--1-----1-(1)---|-1-----1-(1)-------|-3-------3-3-|-3-3-3-3-3-3-3-3-||
|-0--0---0-0-(0)-0-|-----0-------0-----|-2-------2-2-|-2-2-2-2-2-2-2-2-||
|-2----2-2---------|---2------2------2-|-0-------0-0-|-0-0-0-0-0-0-0-0-||
|-3----3-----------|---------------3---|-------------|-----------------||
|------------------|-------------------|-------------|-----------------||


 Chorus
  G               F               Dm
  Q  E E Q  E E   Q  E E Q  E E   E E E E E E E E   +E  E E E Q  E E
|-3--3-3-3--3-3-|-1--1-1-0--0-0-|-1-------3-----1-|-(1)---0---1------|
|-0--0-0-0--0-0-|-1--1-1-1--1-1-|-3-----3-------3-|-(3)-------3--3---|
|-0--0-0-0--0-0-|-2--2-2-0--0-0-|-2---2-------2---|-----2---2----2-0-|
|-0--0-0-0--0-0-|-3--3-3-2--2-2-|-0-0-------0-----|--------------0---|
|-2--2-2-2--2-2-|--------3--3-3-|-----------------|------------------|
|-3--3-3-3--3-3-|-1--1-1--------|-----------------|------------------|


  F               C      G        Dm
  Q  E E Q  E E   Q  E E Q  E E   E E E E E E E E   +E  E E E E E E E
|-1--1-1-1--1-1-|-0--0-0-3--3-3-|-1-------3-----1-|-(1)-1-1-1-1-1-1-1-|
|-1--1-1-1--1-1-|-1--1-1-0--0-0-|-3-----3-----3---|-----3-3-3-3-3-3-3-|
|-2--2-2-2--2-2-|-0--0-0-0--0-0-|-2---2-----2-----|-----2-2-2-2-2-2-2-|
|-3--3-3-3--3-3-|-2--2-2-0--0-0-|-0-0-------------|-----0-0-0-0-0-0-0-|
|---------------|-3--3-3-2--2-2-|-----------------|-------------------|
|-1--1-1-1--1-1-|--------3--3-3-|-----------------|-------------------|


  G               F      C        Dm
  Q  E E Q  E E   Q  E E Q  E E   Q  E E E E +Q     Q  E E +E  E +E  E
|-3--3-3-3--3---|-1--1-1-0--0-0-|-1--1---3-3-(3)--|-1----0-(0)-1-(1)---|
|-3--3-3-3--3---|-1--1-1-1--1-1-|-3--3-3-3-3-(3)--|-3--3-3-(3)-3-(3)-3-|
|-0--0-0-0--0-0-|-2--2-2-0--0-0-|-2--2-2-2-2-(2)--|-2--2-2-(2)-2-(2)-2-|
|-0--0-0-0--0---|-3--3-3-2--2-2-|-0----0-0-0-(0)--|-0----0-(0)-0-(0)---|
|---------------|--------3--3-3-|-----------------|--------------------|
|-3--3-3-3--3---|-1--1-1--------|-----------------|--------------------|


  F             C    G7     Dm
  Q  Q  Q  Q    H    H      E E E E E E E E   E E E E E E E E
|-1--1--1--1--|-0----1----|-1-1-0-0-1-1-3-3-|-3-3-1-0-1-3-1-0-|
|-1--1--1--1--|-1----0----|-3-3-3-3-3-3-3-3-|-3-3-3-3-3-3-3-3-|
|-2--2--2--2--|-0----0----|-2-2-2-2-2-2-2-2-|-2-2-2-2-2-2-2-2-|
|-3--3--3--3--|-2----0----|-0-0-0-0-0-0-0-0-|-0-0-0-0-0-0-0-0-|
|-------------|-3----2----|-----------------|-----------------|
|-1--1--1--1--|------3----|-----------------|-----------------|


                                      5th Verse
                                       Dm
  E E E E E E E E   E E E E E E E E    E E E E E E E E   E E E E E E E E
|-1-1-1-1-1-1-3-3-|-1-1-0-0-1-3-1-0-||-1-1-1-1-1-1-1-1-|-3-3-1-1-0-0-0-0-|
|-3-3-3-3-3-3-3-3-|-3-3-3-3-3-3-3-3-||-3-3-3-3-3-3-3-3-|-3-3-3-3-3-3-3-3-|
|-2-2-2-2-2-2-2-2-|-2-2-2-2-2-2-2-2-||-2-2-2-2-2-2-2-2-|-2-2-2-2-2-2-2-2-|
|-0-0-0-0-0-0-0-0-|-0-0-0-0-0-0-0-0-||-0-0-0-0-0-0-0-0-|-0-0-0-0-0-0-0-0-|
|-----------------|-----------------||-----------------|-----------------|
|-----------------|-----------------||-----------------|-----------------|


  Bbmaj7                          C
  E E E E E E E E   E E E E E E E E   E E E E E E E E   E E E E E E E E
|-5-5-5-5-5-5-5-5-|-5-5-5-5-5-5-5---|-----------------|-----------------|
|-6-6-6-6-6-6-6-6-|-6-6-6-6-6-6-6-1-|-1-1-1-1-1-1-0-0-|-1-1-3-3-1-1-0-0-|
|-7-7-7-7-7-7-7-7-|-7-7-7-7-7-7-7-0-|-0-0-0-0-0-0-0-0-|-0-0-0-0-0-0-0-0-|
|-8-8-8-8-8-8-8-8-|-8-8-8-8-8-8-8-2-|-2-2-2-2-2-2-2-2-|-2-2-2-2-2-2-2-2-|
|-----------------|---------------3-|-3-3-3-3-3-3-3-3-|-3-3-3-3-3-3-3-3-|
|-----------------|-----------------|-----------------|-----------------|


                                      6th Verse
  Dm
  E E E E E E E E   E E E E E E E E    Q  E E E E E E   E E E E Q  Q
|-1-1-3-3-1-1-0-0-|-1-1-0-0-1-1-0-0-||-1--1-------3---|---3p1---1-----|
|-3-3-3-3-3-3-3-3-|-3-3-3-3-3-3-3-3-||-3--3-----3-----|---------3-----|
|-2-2-2-2-2-2-2-2-|-2-2-2-2-2-2-2-2-||-2--2---2-------|-2-----2----2--|
|-0-0-0-0-0-0-0-0-|-0-0-0-0-0-0-0-0-||-0----0-------0-|------------0--|
|-----------------|-----------------||----------------|---------------|
|-----------------|-----------------||----------------|---------------|


  Bbmaj7                           C
  Q  E E +E  E E E   E E E E E E E E   Q  E E E E +E  E   E E E E  E  E E E
|-5----5-(5)-5-5-5-|-5-5-5-5-5-5-5-0-|-0--3-----3-(3)---|-------------------|
|-6----6-(6)-6-6-6-|-6-6-6-6-6-6-6-1-|-1--1-----1-(1)---|-1-----1-(1)-------|
|-7--7-7-(7)-7-7-7-|-7-7-7-7-7-7-7-0-|-0--0---0-0-(0)-0-|-----0-------0-----|
|-8--8-------8-8-8-|-8-8-8-8-8-8-8-2-|-2----2-2---------|---2------2------2-|
|------------------|-----------------|-3----3-----------|---------------3---|
|------------------|-----------------|------------------|-------------------|


                                      Chorus
  Dm                                   G               F      C
  E E E E E E E E   E E E E E E E E    Q  E E Q  E E   Q  E E Q  E E
|-1-1-3-3-1-1-0-0-|-1-1-0-0-1-1-0-0-||-3--3-3-3--3-3-|-1--1-1-0--0-0-|
|-3-3-3-3-3-3-3-3-|-3-3-3-3-3-3-3-3-||-0--0-0-0--0-0-|-1--1-1-1--1-1-|
|-2-2-2-2-2-2-2-2-|-2-2-2-2-2-2-2-2-||-0--0-0-0--0-0-|-2--2-2-0--0-0-|
|-0-0-0-0-0-0-0-0-|-0-0-0-0-0-0-0-0-||-0--0-0-0--0-0-|-3--3-3-2--2-2-|
|-----------------|-----------------||-2--2-2-2--2-2-|--------3--3-3-|
|-----------------|-----------------||-3--3-3-3--3-3-|-1--1-1--------|


  Dm                                   F               C      G
  E E E E E E E E   +E  E E E Q  E E   Q  E E Q  E E   Q  E E Q  E E
|-1-------3-----1-|-(1)---0---1------|-1--1-1-1--1-1-|-0--0-0-3--3-3-|
|-3-----3-------3-|-(3)-------3--3---|-1--1-1-1--1-1-|-1--1-1-0--0-0-|
|-2---2-------2---|-----2---2----2-0-|-2--2-2-2--2-2-|-0--0-0-0--0-0-|
|-0-0-------0-----|--------------0---|-3--3-3-3--3-3-|-2--2-2-0--0-0-|
|-----------------|------------------|---------------|-3--3-3-2--2-2-|
|-----------------|------------------|-1--1-1-1--1-1-|--------3--3-3-|


  Dm                                    G               F      C
  E E E E E E E E   +E  E E E E E E E   Q  E E Q  E E   Q  E E Q  E E
|-1-------3-----1-|-(1)-1-1-1-1-1-1-1-|-3--3-3-3--3---|-1--1-1-0--0-0-|
|-3-----3-----3---|-----3-3-3-3-3-3-3-|-3--3-3-3--3---|-1--1-1-1--1-1-|
|-2---2-----2-----|-----2-2-2-2-2-2-2-|-0--0-0-0--0-0-|-2--2-2-0--0-0-|
|-0-0-------------|-----0-0-0-0-0-0-0-|-0--0-0-0--0---|-3--3-3-2--2-2-|
|-----------------|-------------------|---------------|--------3--3-3-|
|-----------------|-------------------|-3--3-3-3--3---|-1--1-1--------|


  Dm                               F             C    G7
  Q  E E E E Q    Q  E E E E E E   Q  Q  Q  Q    H    H
|-1--1---3-3-3--|-1----0-0-1-1---|-1--1--1--1--|-0----1----||
|-3--3-3-3-3-3--|-3--3-3-3-3-3-3-|-1--1--1--1--|-1----0----||
|-2--2-2-2-2-2--|-2--2-2-2-2-2-2-|-2--2--2--2--|-0----0----||
|-0----0-0-0-0--|-0----0-0-0-0---|-3--3--3--3--|-2----0----||
|---------------|----------------|-------------|-3----2----||
|---------------|----------------|-1--1--1--1--|------3----||


 Interlude
  Dm                                                                    Cadd9
  E E E E E E E E   E E E E E E E E   E E E E  E  E E E   E E E E E E E S S
|---------3-------|-1-------3-------|-------0-(0)-----3-|-3-----3-----------|
|-------3-------3-|-------3-------3-|-----3---------3---|-----3---------3-3-|
|---2---------2---|-----2-------2---|---2---------2-----|---2-------2---0-0-|
|-0---0-----0-----|---0-------0-----|-0--------0--------|-0-------0---0-2-2-|
|-----------------|-----------------|-------------------|---------------3-3-|
|-----------------|-----------------|-------------------|-------------------|


  Q  E E +E  E E E   S S E S S S  S  E E E E
|-3----3-(3)-----3-|-------------------3-----|
|-3----3-(3)-----3-|-----------------3-----3-|
|-0----0-(0)---0---|--------------0----------|
|-2--2-------2-----|-------0-2-3-(3)-----2---|
|-3--3-------------|-0-2-3-------------------|
|------------------|-------------------------|


  Dm
  E E E E  E  E E E   E E E E E E E E
|-------3-(3)-----1-|-------1-------0--|
|-----3---------3---|-----3-------3----|
|---2---------2-----|---2-------2------|
|-0--------0--------|-0-------0--------|
|-------------------|------------------|
|-------------------|------------------|


  E E E E E E E E   E E E E E E E E   E E E E E E E E   E E E E E E E E
|-1-----1-------1-|-------1-------1-|-0-1---1-------1-|-------1---------|
|-3---3-------3---|-----3-------3---|-3---3-------3---|-----3-----3-----|
|-2-2-------2-----|---2-------2-----|-2---------2-----|---2-----2-----2-|
|-0-------0-------|-0-------0-------|-0-------0-------|-0-----------0---|
|-----------------|-----------------|-----------------|-----------------|
|-----------------|-----------------|-----------------|-----------------|


  Dm               F  G            C                  Dm
  E E E E E E Q    Q  Q  E E E E   E E E E +E  E Q    E E E S S E E E E
|-1-------1------|-5--7--7-------|------------------|-------3-1-0-0-0-0-|
|-3-----3-----3--|-6--8--8-------|-----1------------|-----3-----3-3-3-3-|
|-2---2-----2----|-5--7--7---0---|------------------|---2-------2-2-2-2-|
|-0-0------------|---------0---0-|---2--------------|-0---------0-0-0-0-|
|----------------|---------------|-3-----2-(2)-0----|-------------------|
|----------------|---------------|---------------3--|-------------------|


                      F  G            C                  Dm
  E E +E  E E E E E   Q  Q  E E E E   E E E E +E  E Q    E E E S S E E E E
|---1-(1)---1---1---|-5--7--7-------|------------------|-------3p1-0-0-0-0-|
|-3-3-(3)---3---3---|-6--8--8-------|-----1------------|-----3-----3-3-3-3-|
|-2-2-(2)-2-2-2-2-2-|-5--7--7---0---|------------------|---2-------2-2-2-2-|
|-0-------0---0---0-|---------0---0-|---2--------------|-0---------0-0-0-0-|
|-------------------|---------------|-3-----2-(2)-0----|-------------------|
|-------------------|---------------|---------------3--|-------------------|


                    F  G             C                Dm
  E E E E E E E E   Q  Q  E E E  E   E E E E E E Q    Q  E E E  E  Q
|---1-1---1---1---|-5--7--7--------|----------------|-1--3-3-3p=1-----|
|-3-3-3---3---3---|-6--8--8---8\---|-----1---1------|-3--3-3-3-(3)-3--|
|-2-2-2-2-2-2-2-2-|-5--7--7--------|----------------|-2--2-2-2-(2)-2--|
|-0-----0---0---0-|---------0----0-|---2------------|-0--0-0-0-(0)-0--|
|-----------------|----------------|-3-----2---0----|-----------------|
|-----------------|----------------|-------------3--|-----------------|


                   F  G             C                   Dm
  E E E E E E Q    Q  Q  E E E  E   E E E E +E  E E E   Q  E E E E E E
|-----0---1---1--|-5--7--7--------|-------------------|-1------3-3-3-1-|
|-----3---3---3--|-6--8--8---3\---|-----1-------------|-3--3---3-3-3-3-|
|---2---2---2----|-5--7--7--------|-------------------|-2----2-2-2-2-2-|
|-0--------------|---------0----0-|---2-------------0-|-0------0-0-0-0-|
|----------------|----------------|-3-----2-(2)-0-----|----------------|
|----------------|----------------|---------------3---|----------------|


                F  G             C
  Q  Q  Q  Q    Q  Q  Q  S S E   E E E E +E  E E E   E E Q  S S E S S E
|-1--1--1--1--|-5--7--7--------|-------------------|---------------------||
|-3--3--3--3--|-6--8--8------1-|-----1-----------0-|-----3---------------||
|-2--2--2--2--|-5--7--7--------|-------------------|---2--------------5--||
|-0--0--0--0--|----------------|---2---------------|-0----------5-5h7----||
|-------------|----------0h2---|-3-----2-(2)-0-----|--------5h8----------||
|-------------|----------------|---------------3---|---------------------||


 Guitar Solo
  N.C.
  a Q  Q  H      S S S S S S E +Q   S S S S   S S S S E S S E S S S S S S
|--------------|------------------------5---|-5----------------------------|
|--------------|-----5h6p5---5-(5)--5h6---6-|---6p5-8p6-6p5----------------|
|-5h7--7--7----|-5h7-------7----------------|---------------7---5-5-5-5-5--|
|--------------|----------------------------|------------------------------|
|--------------|----------------------------|------------------------------|
|--------------|----------------------------|------------------------------|


  E E E E Q  E E   E E E E Q  E E
|----------------|----------------|
|----------------|---------5--6-5-|
|-7-7-7-5--------|---------5------|
|---------7------|-----5-7--------|
|------------5-3-|-5S8------------|
|----------------|----------------|


  E  E  E  E  Q   E  E    Q   E  E  E  E  E  E
|----------------------|-----------------------|
|---10-10h13-13--13----|-----------------------|
|---10-10h12-12-----10-|--------10-12-12-10----|
|----------------------|-12--12-------------12-|
|----------------------|-----------------------|
|----------------------|-----------------------|


   +E   Q   Q   E  +Q      E  Q.    Q   E  E
|------10--10-----------|-10-10----10--10-10-|
|-----------------------|-13-13----13--13-13-|
|-----------------------|--------------------|
|-(12)---------12-(12)--|--------------------|
|-----------------------|--------------------|
|-----------------------|--------------------|


   Q   Q   Q   E  E    Q   Q   Q   Q
|-10--10--10--10----|-----------------|
|-13--13--10--10----|-----10--10--10--|
|-------------------|-10--10--10--10--|
|----------------12-|-----------------|
|-------------------|-----------------|
|-------------------|-----------------|


                          |-3-|
  Q  E  E  Q   Q    E E E S S S S E S S S E   Q  E E Q  E E   E E E E Q  E E
|-8--8-10-10--10--|-------------------------|---------------|----------------|
|-8--8-10-10--10--|-----------------5-5-6-5-|-6--8-6-8------|-5-6-5----------|
|-----------------|-------------5-7---------|-----------5-7-|-------5-7--7-5-|
|-----------------|-------3-5s7-------------|---------------|----------------|
|-----------------|---3-5-------------------|---------------|----------------|
|-----------------|-------------------------|---------------|----------------|


                  Out-Chorus
                   G             F      C        Dm
  E E Q  E Q.      Q  Q  Q  Q    Q  E E Q  E E   Q  E E Q  E E
|---5-5--5-5----||-3--3--3--3--|-1--1-1-0--0-0-|-1--1-1-3--3-1-|
|---6-6--6-6----||-0--0--0--0--|-1--1-1-1--1-1-|-3--3-3-3--3-3-|
|-7-------------||-0--0--0--0--|-2--2-2-0--0-0-|-2--2-2-2--2-2-|
|---------------||-0--0--0--0--|-3--3-3-2--2-2-|-0--0-0-0--0-0-|
|---------------||-2--2--2--2--|--------3--3-3-|---------------|
|---------------||-3--3--3--3--|-1--1-1--------|---------------|


                    F              C      G        Dm
  +E  E Q  Q  E E   Q  Q  Q  E E   Q  E E Q  E E   Q  E E Q  E E
|-(1)-1-0--1--1-1-|-1--1--1--1-1-|-0--0-0-3--3-3-|-1--3-3-3--3-1-|
|-(3)-3-3--3--3-3-|-1--1--1--1-1-|-1--1-1-0--0-0-|-3--3-3-3--3-3-|
|-(2)-2-2--2--2-2-|-2--2--2--2-2-|-0--0-0-0--0-0-|-2--2-2-2--2-2-|
|-(0)-0-0--0--0-0-|-3--3--3--3-3-|-2--2-2-0--0-0-|-0--0-0-0--0-0-|
|-----------------|--------------|-3--3-3-2--2-2-|---------------|
|-----------------|-1--1--1--1-1-|--------3--3-3-|---------------|


                    G             F      C        Dm
  E E E E E E E E   Q  Q  Q  Q    Q  E E Q  E E   Q  E E Q  E E
|-3-3-3-3-3-3-3-3-|-3--3--3--3--|-1--1-1-0--0-0-|-1--1-3-3--3-1-|
|-3-3-3-3-3-3-3-3-|-0--0--0--0--|-1--1-1-1--1-1-|-3--3-3-3--3-3-|
|-2-2-2-2-2-2-2-2-|-0--0--0--0--|-2--2-2-0--0-0-|-2--2-2-2--2-2-|
|-0-0-0-0-0-0-0-0-|-0--0--0--0--|-3--3-3-2--2-2-|-0--0-0-0--0-0-|
|-----------------|-2--2--2--2--|--------3--3-3-|---------------|
|-----------------|-3--3--3--3--|-1--1-1--------|---------------|


                F            C    G      Dm
  Q  Q  Q  Q    Q  H.        H    H      W          +W
|-1--0--1--3--|-1--1-------|-0----3----|-1--------|-(1)----*|
|-3--3--3--3--|-1--1-------|-1---------|-3--------|-(3)----*|
|-2--2--2--2--|-2--2-------|-0----0----|-2--------|-(2)----*|
|-0--0--0--0--|-3--3-------|-2----0----|-0--------|-(0)----*|
|-------------|------------|-3----2----|----------|--------*|
|-------------|-1--1-------|------3----|----------|--------*|
            
Submit corrections

↑ Back to top | Tablatures and chords for acoustic guitar and electric guitar, ukulele, drums are parodies/interpretations of the original songs. You may use it for private study, scholarship, research or language learning purposes only