Home » G » Golden Earring »

Golden Earring - Another 45 Miles Unplugged Tabs

Artists:  A B C D E F G H I J K L M N O P Q R S T U V W X Y Z # 

Another 45 Miles Unplugged Tabs

(ver. 1) Click to play this song!
Golden Earring
 Rating:
4/5 (4 votes)
                Gtr I (E A D G B E) - 'George Kooymans - Acoustic Guitar'


   Intro
    Q=104
    G           G/F#        Em                    G         G/F#
   4/4
    Gtr I
    E S S E S S E S S E E   E E E S S E E E S S   E E E S S E E E S S
||------------------------|-----0---------0-----|-3---3---------------|
||o-0-0-0-0-0-0-0-0-0-0-0-|-0-0-0-0-0-0-0-0-0-0-|-0-0-0-0-0-0-0-0-0-0-|
||--0-0-0-0-0-0-0-0-0-0-0-|-0-0-0-0-0-0-0-0-0-0-|-0-0-0-0-0-0-0-0-0-0-|
||--0-0-0-0-0-0-0-0-0-0-0-|-2-2-2-2-2-2-2-2-2-2-|-0-0-0-0-0-0-0-0-0-0-|
||o-2-2-2-2-2-2-----------|-2-2-2-2-2-2-2-2-2-2-|-2-2-2-2-2-----------|
||--3-3-3-3-3-3-2-2-2-2-2-|-0-0-0-0-0-0-0-0-0-0-|-3-3-3-3-3-2-2-2-2-2-|


                                1st & 2nd Verses
  G                              G         G/F#        Em
  E E E S S E. S S S S S         E E E S S E E E S S   E E E S S E E E S S
|-------------------------||-||--3-3-3-3-3-----------|-0-0-0-0-0-0-0-0-0-0--|
|-0-0-0-0-0-0--0-0-0-0-0-o||-||o-0-0-0-0-0-0-0-0-0-0-|-0-0-0-0-0-0-0-0-0-0--|
|-0-0-0-0-0-0--0-0-0-0-0--||-||--0-0-0-0-0-0-0-0-0-0-|-0-0-0-0-0-0-0-0-0-0--|
|-0-0-0-0-0-0--0-0-0-0-0--||-||--0-0-0-0-0-0-0-0-0-0-|-2-2-2-2-2-2-2-2-2-2--|
|-2-2-2-2-2-2--2-2-2-2-2-o||-||o-2-2-2-2-2-----------|-2-2-2-2-2-2-2-2-2-2--|
|-3-3-3-3-3-3--3-3-3-3-3--||-||--3-3-3-3-3-2-2-2-2-2-|-0-0-0-0-0-0-0-0-0-0--|


  G         G/F#        Em                    Am        G
  E E E S S E E E S S   E E E S S E E E S S   E E E S S E E E S S
|-3-3-3-3-3-----------|-0-0-0-0-0-0-0-0-0-0-|-0-0-0-0-0-3-3-3-3-3--|
|-0-0-0-0-0-0-0-0-0-0-|-0-0-0-0-0-0-0-0-0-0-|-1-1-1-1-1-0-0-0-0-0--|
|-0-0-0-0-0-0-0-0-0-0-|-0-0-0-0-0-0-0-0-0-0-|-2-2-2-2-2-0-0-0-0-0--|
|-0-0-0-0-0-0-0-0-0-0-|-2-2-2-2-2-2-2-2-2-2-|-2-2-2-2-2-0-0-0-0-0--|
|-2-2-2-2-2-----------|-2-2-2-2-2-2-2-2-2-2-|-0-0-0-0-0------------|
|-3-3-3-3-3-2-2-2-2-2-|-0-0-0-0-0-0-0-0-0-0-|-----------3-3-3-3-3--|


  D     Dsus4   D       Am        G           D    Dsus4
  E E E S S E E S S E   E E E S S E E E S S   E. S E E +S  E S S S S S
|-2-2-2-3-3-3-3-2-----|-0-0-0-0-0-3-3-3-3-3-|-2--2-3-3-(3)-3-3-3-3-3-3-|
|-3-3-3-3-3-3-3-3-0-0-|-1-1-1-1-1-0-0-0-0-0-|-3--3-3-3-(3)-3-3-3-3-3-3-|
|-2-2-2-2-2-2-2-2-0-0-|-2-2-2-2-2-0-0-0-0-0-|-2--2-2-2-(2)-2-2-2-2-2-2-|
|-0-0-0-0-0-0-0-0-0-0-|-2-2-2-2-2-0-0-0-0-0-|-0--0-0-0-(0)-0-0-0-0-0-0-|
|---------------------|-0-0-0-0-0-2-2-2-2-2-|--------------------------|
|---------------------|-----------3-3-3-3-3-|--------------------------|


  G         G/F#        Em                    A
  E E E S S E E E S S   E E E S S E E E S S   E S S E E S S E S S S S
|-3-3-3-3-3-----------|-0-0-0-0-0-0-0-0-0-0-|--------------------------|
|-0-0-0-0-0-0-0-0-0-0-|-0-0-0-0-0-0-0-0-0-0-|-2-2-2-2-3-3-3-3-3-3-3-3--|
|-0-0-0-0-0-0-0-0-0-0-|-0-0-0-0-0-0-0-0-0-0-|-2-2-2-2-2-2-2-2-2-2-2-2--|
|-0-0-0-0-0-0-0-0-0-0-|-2-2-2-2-2-2-2-2-2-2-|-2-2-2-2-2-2-2-2-2-2-2-2--|
|---------------------|-2-2-2-2-2-2-2-2-2-2-|-0-0-0-0-0-0-0-0-0-0-0-0--|
|-3-3-3-3-3-2-2-2-2-2-|-0-0-0-0-0-0-0-0-0-0-|--------------------------|


  D       Dsus4             D7                    G
  E E +E  S S E S S E S S   E E E S S E E E S S   E E E E S S S S E S S
|-2-2-(2)-3-3-3-3-3-3-----|-2-2-2-2-2-2-2-2-2-2-|-3-3-3-3-3-3-3-3-3------|
|-3-3-(3)-3-3-3-3-3-3-0-0-|-1-1-1-1-1-1-1-1-1-1-|-0-0-0-0-0-0-0-0-0-0-0--|
|-2-2-(2)-2-2-2-2-2-2-0-0-|-2-2-2-2-2-2-2-2-2-2-|-0-0-0-0-0-0-0-0-0-0-0--|
|-0-0-(0)-0-0-0-0-0-0-0-0-|-0-0-0-0-0-0-0-0-0-0-|-0-0-0-0-0-0-0-0-0-0-0--|
|-------------------------|---------------------|-2-2-2-2-2-2-2-2-2------|
|-------------------------|---------------------|-3-3-3-3-3-3-3-3-3------|


  G7                C                      G    D              Em     C
                                                              2/4
  E E E E E E E E   E E E S S +S  S E Q    Q.   E +S  S E Q    E. S E E
|-1-1-1-1-1-1-1---|----------------------|-3----2-(2)-2-2-2--|----------|
|-0-0-0-0-0-0-0-0-|-1-1-1-1-1-(1)-1-1-1--|-0----3-(3)-3-3-3--|-0--0-0-1-|
|-0-0-0-0-0-0-0-0-|-0-0-0-0-0-(0)-0-0-0--|-0----2-(2)-2-2-2--|-0--0-0-0-|
|-0-0-0-0-0-0-0-0-|-2-2-2-3-3-(3)-3-3-2--|-0----0-(0)-0-0-0--|-2--2-2-2-|
|-2-2-2-2-2-2-2---|-3-3-3-3-3-(3)-3-3-3--|-2-----------------|-2--2-2-3-|
|-3-3-3-3-3-3-3---|----------------------|-3-----------------|-0--0-0---|


                                               Chorus
                                                G
 4/4
  W          S S S S S S S S S S S S S S S S    E E E S S E E E S S
|-0--------|-0-0-0-0-0-0-0-0-0-0-0-0-0-0-0-0-||-3-3-3-3-3-3-3-3-3-3--|
|-1--------|-1-1-1-1-1-1-1-1-1-1-1-1-1-1-1-1-||-0-0-0-0-0-0-0-0-0-0--|
|-0--------|-0-0-0-0-0-0-0-0-0-0-0-0-0-0-0-0-||-0-0-0-0-0-0-0-0-0-0--|
|-2--------|-2-2-2-2-2-2-2-2-2-2-2-2-2-2-2-2-||-0-0-0-0-0-0-0-0-0-0--|
|-3--------|-3-3-3-3-3-3-3-3-3-3-3-3-3-3-3-3-||-2-2-2-2-2------------|
|----------|---------------------------------||-3-3-3-3-3-2-2-2-2-2--|


  Em                    G         G/F#        Em
  E E E S S E E E S S   E E E S S E E E S S   E E E S S E E E S S
|-0-0-0-0-0-0-0-0-0-0-|-3-3-3-3-3-3-3-3-3-3-|-0-0-0-0-0-0-0-0-0-0--|
|-0-0-0-0-0-0-0-0-0-0-|-0-0-0-0-0-0-0-0-0-0-|-0-0-0-0-0-0-0-0-0-0--|
|-0-0-0-0-0-0-0-0-0-0-|-0-0-0-0-0-0-0-0-0-0-|-0-0-0-0-0-0-0-0-0-0--|
|-2-2-2-2-2-2-2-2-2-2-|-0-0-0-0-0-0-0-0-0-0-|-2-2-2-2-2-2-2-2-2-2--|
|-2-2-2-2-2-2-2-2-2-2-|-2-2-2-2-2-----------|-2-2-2-2-2-2-2-2-2-2--|
|-0-0-0-0-0-0-0-0-0-0-|-3-3-3-3-3-2-2-2-2-2-|-0-0-0-0-0-0-0-0-0-0--|


  Am        G           D                    Am        G
  E E E S S E E E S S   E E E S S S S E Q    E E E S S E E E S S
|-0-0-0-0-0-3-3-3-3-3-|-2-2-2-2-2-2-2-2-2--|-0-0-0-0-0-3-3-3-3-3--|
|-1-1-1-1-1-0-0-0-0-0-|-3-3-3-3-3-3-3-3-3--|-1-1-1-1-1-0-0-0-0-0--|
|-2-2-2-2-2-0-0-0-0-0-|-2-2-2-2-2-2-2-2-2--|-2-2-2-2-2-0-0-0-0-0--|
|-2-2-2-2-2-0-0-0-0-0-|-0-0-0-0-0-0-0-0-0--|-2-2-2-2-2-0-0-0-0-0--|
|-0-0-0-0-0-2-2-2-2-2-|--------------------|-0-0-0-0-0------------|
|-----------3-3-3-3-3-|--------------------|-----------3-3-3-3-3--|


  D     Dsus4               G         G/F#        Em
  E E E E S S S S S S S S   E E E S S E E E S S   E E E S S E E E S S
|-2-2-2-3-3-3-3-3-3-3-3-3-|-3-3-3-3-3-3-3-3-3-3-|-0-0-0-0-0-0-0-0-0-0--|
|-3-3-3-3-3-3-3-3-3-3-3-3-|-0-0-0-0-0-0-0-0-0-0-|-0-0-0-0-0-0-0-0-0-0--|
|-2-2-2-2-2-2-2-2-2-2-2-2-|-0-0-0-0-0-0-0-0-0-0-|-0-0-0-0-0-0-0-0-0-0--|
|-0-0-0-0-0-0-0-0-0-0-0-0-|-0-0-0-0-0-0-0-0-0-0-|-2-2-2-2-2-2-2-2-2-2--|
|-------------------------|-2-2-2-2-2-----------|-2-2-2-2-2-2-2-2-2-2--|
|-------------------------|-3-3-3-3-3-2-2-2-2-2-|-0-0-0-0-0-0-0-0-0-0--|


  G         G/F#        Em                    Am       G
  E E E S S E E E S S   E E E S S E E E S S   Q  E S S E E E S S
|-3-3-3-3-3-3-3-3-3-3-|-0-0-0-0-0-0-0-0-0-0-|-0--0-0-0-3-3-3-3-3--|
|-0-0-0-0-0-0-0-0-0-0-|-0-0-0-0-0-0-0-0-0-0-|-1--1-1-1-0-0-0-0-0--|
|-0-0-0-0-0-0-0-0-0-0-|-0-0-0-0-0-0-0-0-0-0-|-2--2-2-2-0-0-0-0-0--|
|-0-0-0-0-0-0-0-0-0-0-|-2-2-2-2-2-2-2-2-2-2-|-2--2-2-2-2-2-2-2-2--|
|-2-2-2-2-2-----------|-2-2-2-2-2-2-2-2-2-2-|-0--0-0-0-2-2-2-2-2--|
|-3-3-3-3-3-2-2-2-2-2-|-0-0-0-0-0-0-0-0-0-0-|----------3-3-3-3-3--|


                     1.
  D     DsusD         Am        G           D    Dsus4
  E E E E E E S S E   E E E S S E E E S S   Q  E E E E E E
|-2-2-2-3-3-2-2-2-2-|-0-0-0-0-0-3-3-3-3-3-|-2--2-3-3-3-3-3--||
|-3-3-3-3-3-3-3-3-3-|-1-1-1-1-1-0-0-0-0-0-|-3--3-3-3-3-3-3-o||
|-2-2-2-2-2-2-2-2-2-|-2-2-2-2-2-0-0-0-0-0-|-2--2-2-2-2-2-2--||
|-0-0-0-0-0-0-0-0-0-|-2-2-2-2-2-0-0-0-0-0-|-0--0-0-0-0-0-0--||
|-------------------|-0-0-0-0-0-2-2-2-2-2-|----------------o||
|-------------------|-----------3-3-3-3-3-|-----------------||


                                                  Out-Chorus
  2.
  Am        G           D     Dsus4                G         G/F#
  E E E S S E E E S S   E E E E S S S S S S S S    E E E S S E E E S S
|-0-0-0-0-0-3-3-3-3-3-|-2-2-2-3-3-3-3-3-3-3-3-3-||-3-3-3-3-3-3-3-3-3-3--|
|-1-1-1-1-1-0-0-0-0-0-|-3-3-3-3-3-3-3-3-3-3-3-3-||-0-0-0-0-0-0-0-0-0-0--|
|-2-2-2-2-2-0-0-0-0-0-|-2-2-2-2-2-2-2-2-2-2-2-2-||-0-0-0-0-0-0-0-0-0-0--|
|-2-2-2-2-2-0-0-0-0-0-|-0-0-0-0-0-0-0-0-0-0-0-0-||-0-0-0-0-0-0-0-0-0-0--|
|-0-0-0-0-0-----------|-------------------------||-2-2-2-2-2------------|
|-----------3-3-3-3-3-|-------------------------||-3-3-3-3-3-2-2-2-2-2--|


  Em                    G         G/F#        Em
  E E E S S E E E S S   E E E S S E E E S S   E E E S S E E E S S
|-0-0-0-0-0-0-0-0-0-0-|-3-3-3-3-3-3-3-3-3-3-|-0-0-0-0-0-0-0-0-0-0--|
|-0-0-0-0-0-0-0-0-0-0-|-0-0-0-0-0-0-0-0-0-0-|-0-0-0-0-0-0-0-0-0-0--|
|-0-0-0-0-0-0-0-0-0-0-|-0-0-0-0-0-0-0-0-0-0-|-0-0-0-0-0-0-0-0-0-0--|
|-2-2-2-2-2-2-2-2-2-2-|-0-0-0-0-0-0-0-0-0-0-|-2-2-2-2-2-2-2-2-2-2--|
|---------------------|-2-2-2-2-2-----------|-2-2-2-2-2-2-2-2-2-2--|
|-0-0-0-0-0-0-0-0-0-0-|-3-3-3-3-3-2-2-2-2-2-|-0-0-0-0-0-0-0-0-0-0--|


  Am        G           D     Dsus4   D
  E E E S S E E E S S   E E E E E E E E
|-0-0-0-0-0-3-3-3-3-3-|-2-2-2-3-3-3-2-2-|
|-1-1-1-1-1-0-0-0-0-0-|-3-3-3-3-3-3-3-3-|
|-2-2-2-2-2-0-0-0-0-0-|-2-2-2-2-2-2-2-2-|
|-2-2-2-2-2-0-0-0-0-0-|-0-0-0-0-0-0-0-0-|
|-0-0-0-0-0-----------|-----------------|
|-----------3-3-3-3-3-|-----------------|


  Am        G           D
  E E E S S E E E S S   E E E E E E E E
|-0-0-0-0-0-3-3-3-3-3-|-2-2-2-2-2-2-2-2-|
|-1-1-1-1-1-0-0-0-0-0-|-3-3-3-3-3-3-3-3-|
|-2-2-2-2-2-0-0-0-0-0-|-2-2-2-2-2-2-2-2-|
|-2-2-2-2-2-0-0-0-0-0-|-0-0-0-0-0-0-0-0-|
|-0-0-0-0-0-----------|-----------------|
|-----------3-3-3-3-3-|-----------------|


  G    G/F#   Em
  H    H      W          +W
|-3----3----|-0--------|-(0)----*|
|-0----0----|-0--------|-(0)----*|
|-0----0----|-0--------|-(0)----*|
|-0----0----|-2--------|-(2)----*|
|-2----2----|-2--------|-(2)----*|
|-3----2----|-0--------|-(0)----*|
            
Submit corrections

↑ Back to top | Tablatures and chords for acoustic guitar and electric guitar, ukulele, drums are parodies/interpretations of the original songs. You may use it for private study, scholarship, research or language learning purposes only