Home » G » God Is An Astronaut »

God Is An Astronaut - Twilight Tabs

Artists:  A B C D E F G H I J K L M N O P Q R S T U V W X Y Z # 

Twilight Tabs

(ver. 1) Click to play this song!
God Is An Astronaut
Fig 1:
e|---------------------------------------------|
B|---------------------------------------------|
G|-------4-6--------4-6/8-6--------------------|
D|-4-6-6-----4-6-6-----------------------------|
A|---------------------------------------------|
E|---------------------------------------------|

 Fig 2:
e|----------------------------------------------|
B|----7-9-11----7-9-11-7----7-11-12----7-9-11-7-|
G|-10--------10----------10---------10----------|
D|----------------------------------------------|
A|----------------------------------------------|
E|----------------------------------------------|

 Fig 3 (OUTRO):
e|E----------------------------------------------|
B|----------------------------------------------|
G|----------------------------------------------|
D|-6----8----9----4-----------------------------|
A|-6----8----9----4-----------------------------|
E|-4----6----7----2-----------------------------|
            
Submit corrections

↑ Back to top | Tablatures and chords for acoustic guitar and electric guitar, ukulele, drums are parodies/interpretations of the original songs. You may use it for private study, scholarship, research or language learning purposes only