Home » G » Glen Hansard »

Glen Hansard - Trying To Pull Myself Away Tabs

Artists:  A B C D E F G H I J K L M N O P Q R S T U V W X Y Z # 

Trying To Pull Myself Away Tabs

(ver. 1) Click to play this song!
Glen Hansard
 Rating:
4/5 (4 votes)
                A very easy song based around a few chords and some little garnishes here and there.
Sounds great on an acoustic.


Verse
    A                  Em7
e---0---0---0---0---0---0---0---0---0---0---0---0---|
b---2---2---2---0---2/3-3---3---3---3---3---3---3---|
g---2---2---2---2---2---0---0---0---0---0---0---0---|    x3
d---2---2---2---2---2---2---2---2---2---2---2---2---|
a---------------------------------------------------|
e---------------------------------------------------|

    A
e---0---0---0---0---0---0---------------0-----------|
b---2---2---2---0---2-------2---0---2-------2---0---|
g---2---2---2---2---2-------------------------------|
d---2---2---2---2---2-------------------------------|
a---------------------------------------------------|
e---------------------------------------------------|


Bridge
    D     F#m     E      D
e---0-------------0------0---|
b---3------2------0------3---|
g---2------2------1------2---|
d---0------4------2------0---|
a----------4------2----------|
e----------2------0----------|

I’ve left out any indication for rhythm on the bridge and chorus as the chords
are pretty basic and you can listen for the strum pattern yourself.

Chorus
    A      Em     D
e---0------0------2---|
b---2------0------3---|
g---2------0------2---|
d---2------2------0---|
a---0------2----------|
e----------0----------|

The chorus chord progression continues all the way until the end of the song.

Enjoy!
            
Submit corrections

↑ Back to top | Tablatures and chords for acoustic guitar and electric guitar, ukulele, drums are parodies/interpretations of the original songs. You may use it for private study, scholarship, research or language learning purposes only