Home » G » Glen Hansard »

Glen Hansard - Paying My Way Tabs

Artists:  A B C D E F G H I J K L M N O P Q R S T U V W X Y Z # 

Paying My Way Tabs

(ver. 1) Click to play this song!
Glen Hansard
 Rating:
1.9/5 (28 votes)
                Tuning: Stsndard

e|-------------------------------------------------------------------------------------|
B|---3---3----3----3----3-----0----0------------3---3----3-----3----3----0--0----------|
G|---0---0h2--0h2--2h4--------2----0-------0----0---0h2--0h2---2h4-------2--0-------0--|
D|------------------------------------0h2--------------------------------------0h2-----|
A|-------------------------------------------------------------------------------------|
E|-3---3------3----3------3---3---------------3---3------3----3------3---3-------------|


e|-----------------------------------------------------------------------------|
B|---3---3----3----3----3---------------3---3----3-----3----3----0--0----------|
G|---0---0h2--0h2--2h4------------------0---0h2--0h2---2h4-------2--0-------0--|
D|---------------------------------------------------------------------0h2-----|
A|-----------------------------------------------------------------------------|
E|-3---3------3----3------3---3---3---3---3------3----3------3---3-------------|

e|----------------------------------------------------------------------|
B|---3---3----3----3----3---------------3---3----3-----3----3-----------|
G|---0---0h2--0h2--2h4------------------0---0h2--0h2---2h4--------------|
D|----------------------------------------------------------------------|
A|----------------------------------------------------------------------|
E|-3---3------3----3------3---3---3---3---3------3----3------3---3---3--|

e|------------------------------------------------------------------|
B|----------------------------------3----3----3----3----3-----------|
G|----5----5-4-----4h5--------------0----0h2--0h2--2h4--------------|
D|----5----5-5-----5-5----------------------------------------------|
A|------------------------------------------------------------------|
E|-5----5-------5------5--5--5---3----3-------3----3-------3--3--3--|

e|------------------------------------------------------------------|
B|----------------------------------3----3----3----3----3-----------|
G|----5----5-4-----4h5--------------0----0h2--0h2--2h4--------------|
D|----5----5-5-----5-5----------------------------------------------|
A|------------------------------------------------------------------|
E|-5----5-------5------5--5--5---3----3-------3----3-------3--3--3--|

e|-----------------------------------------------------------------------------|
B|---3---3----3----3----3---------------3---3----3-----3----3----0--0----------|
G|---0---0h2--0h2--2h4------------------0---0h2--0h2---2h4-------2--0-------0--|
D|---------------------------------------------------------------------0h2-----|
A|-----------------------------------------------------------------------------|
E|-3---3------3----3------3---3---3---3---3------3----3------3---3-------------|

e|----------------------------------------------------------------------|
B|---3---3----3----3----3---------------3---3----3-----3----3-----------|
G|---0---0h2--0h2--2h4------------------0---0h2--0h2---2h4--------------|
D|----------------------------------------------------------------------|
A|----------------------------------------------------------------------|
E|-3---3------3----3------3---3---3---3---3------3----3------3---3---3--|

e|------------------------------------------------------------------|
B|----------------------------------3----3----3----3----3-----------|
G|----5----5-4-----4h5--------------0----0h2--0h2--2h4--------------|
D|----5----5-5-----5-5----------------------------------------------|
A|------------------------------------------------------------------|
E|-5----5-------5------5--5--5---3----3-------3----3-------3--3--3--|

e|------------------------------------------------------------------|
B|----------------------------------3----3----3----3----3-----------|
G|----5----5-4-----4h5--------------0----0h2--0h2--2h4--------------|
D|----5----5-5-----5-5----------------------------------------------|
A|------------------------------------------------------------------|
E|-5----5-------5------5--5--5---3----3-------3----3-------3--3--3--|

e|-------------------------------------------------------------------------|
B|-----------------------8---------8-------------------------8---------8---|
G|-------7-----7---------9---------9---------7-----7---------9---------9---|
D|-------7-----7-----10-----10-----10--------7-----7-----10-----10-----10--|
A|----9-----------------------------------9--------------------------------|
E|-7--------7-----8-------------8------7--------7-----8-------------8------|

e|----------------------------------------------------5--|
B|----------7--------------------5-----------------5-----|
G|----------7--7-----7-----------5--5-----------5--------|
D|-------7--------7-----------5--------5-----5-----------|
A|----9--------------------7--------------5--------------|
E|-7--------------------5--------------------------------|

e|------------------------------------------------------------------|
B|----------------------------------3----3----3----3----3-----------|
G|----5----5-4-----4h5--------------0----0h2--0h2--2h4--------------|
D|----5----5-5-----5-5----------------------------------------------|
A|------------------------------------------------------------------|
E|-5----5-------5------5--5--5---3----3-------3----3-------3--3--3--|

e|------------------------------------------------------------------|
B|----------------------------------3----3----3----3----3-----------|
G|----5----5-4-----4h5--------------0----0h2--0h2--2h4--------------|
D|----5----5-5-----5-5----------------------------------------------|
A|------------------------------------------------------------------|
E|-5----5-------5------5--5--5---3----3-------3----3-------3--3--3--|

e|-------------------------------------------------------------------------------------|
B|---3---3----3----3----3-----0----0------------3---3----3-----3----3----0--0----------|
G|---0---0h2--0h2--2h4--------2----0-------0----0---0h2--0h2---2h4-------2--0-------0--|
D|------------------------------------0h2--------------------------------------0h2-----|
A|-------------------------------------------------------------------------------------|
E|-3---3------3----3------3---3---------------3---3------3----3------3---3-------------|

e|-----------------------------------------------------------------------------|
B|---3---3----3----3----3---------------3---3----3-----3----3----0--0----------|
G|---0---0h2--0h2--2h4------------------0---0h2--0h2---2h4-------2--0-------0--|
D|---------------------------------------------------------------------0h2-----|
A|-----------------------------------------------------------------------------|
E|-3---3------3----3------3---3---3---3---3------3----3------3---3-------------|

e|----------------------------------------------------------------------|
B|---3---3----3----3----3---------------3---3----3-----3----3-----------|
G|---0---0h2--0h2--2h4------------------0---0h2--0h2---2h4--------------|
D|----------------------------------------------------------------------|
A|----------------------------------------------------------------------|
E|-3---3------3----3------3---3---3---3---3------3----3------3---3---3--|

e|------------------------------------------------------------------|
B|----------------------------------3----3----3----3----3-----------|
G|----5----5-4-----4h5--------------0----0h2--0h2--2h4--------------|
D|----5----5-5-----5-5----------------------------------------------|
A|------------------------------------------------------------------|
E|-5----5-------5------5--5--5---3----3-------3----3-------3--3--3--|

e|------------------------------------------------------------------|
B|----------------------------------3----3----3----3----3-----------|
G|----5----5-4-----4h5--------------0----0h2--0h2--2h4--------------|
D|----5----5-5-----5-5----------------------------------------------|
A|------------------------------------------------------------------|
E|-5----5-------5------5--5--5---3----3-------3----3-------3--3--3--|

e|------------------------------------------------------------------|
B|----------------------------------3----3----3----3----3-----------|
G|----5----5-4-----4h5--------------0----0h2--0h2--2h4--------------|
D|----5----5-5-----5-5----------------------------------------------|
A|------------------------------------------------------------------|
E|-5----5-------5------5--5--5---3----3-------3----3-------3--3--3--|

e|-----------------------------------------------------------------------|
B|----------------------------------3----3----3----3----3--0--0----------|
G|----5----5-4-----4h5--------------0----0h2--0h2--2h4-----2--0-------0--|
D|----5----5-5-----5-5-------------------------------------------0h2-----|
A|-----------------------------------------------------------------------|
E|-5----5-------5------5--5--5---3----3-------3----3-------3-------------|

e|-------------------------------------------------------------------------------------|
B|---3---3----3----3----3-----0----0------------3---3----3-----3----3----0--0----------|
G|---0---0h2--0h2--2h4--------2----0-------0----0---0h2--0h2---2h4-------2--0-------0--|
D|------------------------------------0h2--------------------------------------0h2-----|
A|-------------------------------------------------------------------------------------|
E|-3---3------3----3------3---3---------------3---3------3----3------3---3-------------|

e|---------------------------------------------------------------------------------------|
B|---3---3----3----3----3-----0----0------------3---3----3-----3----3----0--0------------|
G|---0---0h2--0h2--2h4--------2----0-------0----0---0h2--0h2---2h4-------2--0-------0----|
D|------------------------------------0h2--------------------------------------0h2-------|
A|---------------------------------------------------------------------------------------|
E|-3---3------3----3------3---3---------------3---3------3----3------3---3------------3--|            
Submit corrections

↑ Back to top | Tablatures and chords for acoustic guitar and electric guitar, ukulele, drums are parodies/interpretations of the original songs. You may use it for private study, scholarship, research or language learning purposes only