Home » G » Glen Campbell »

Glen Campbell - Classical Gas Tabs

Artists:  A B C D E F G H I J K L M N O P Q R S T U V W X Y Z # 

Classical Gas Tabs

(ver. 1) Click to play this song!
Glen Campbell
Classical Gas
By Mason Williams

Performed by Glen Campbell

h   - hammer-on
p   - pull-off
b   - bend

W - whole;
H – half
Q – quarter
E - 8th
S - 16th
+ - note tied to previous; .

 Intro
  Semi Fast 

 4/4  
  Q  +S  Q  +S  Q  +E    E E H    Q    E E Q  Q  Q    E E H.
|----------------------|-------------|--------------|-----------|
|-1--(1)--------1--(1)-|-----0-------|-----0--------|-----------|
|--------2--(2)--------|---0---------|---0----2--0--|-----2-----|
|----------------------|-------------|--------------|---2-------|
|-0--------------------|-------------|--------------|-0---------|
|----------------------|-3--------2--|-0------------|-----------|


  E S. S.S. E S.Q.     E E H    Q    E E Q  Q  Q    E E H.
|--------------------|-------------|--------------|-----------|
|------0h1----0h1----|-----0-------|-----0--------|-----0-----|
|---2-------2--------|---0---------|---0----2--0--|-0h2-------|
|--------------------|-------------|--------------|-----------|
|-0------------------|-------------|--------------|-----------|
|--------------------|-3--------2--|-0------------|-----------|


  E E H.        E E E E E E E E   Q  Q.   E E E   
|-------------|-----------------|----0----------|
|-------------|-----------------|-3---------3-1-|
|-----2-------|-----0-----0---0-|---------0---2-|
|---2---------|---0-----0-------|---------------|
|-0-----------|-------0-----2---|----3----------|
|-------------|-3---------------|---------------|


  +Q   Q.   Q  E   +Q   H.
|----------------|------------|
|-(1)--3-------1-|-(1)--0-----|
|-(2)------------|------------|
|-----------2----|------------|
|----------------|------------|
|----------------|------------|

   Verse
   4/4
    S S  E  E E E E E E   E E E E E E E E
||----------------------|-----------------|
||o-0h1p(0)-1-----1---0-|-----------------|
||------------2---------|-----0-----0-----|
||------------------2---|---0-----0-----0-|
||o-0-----------0-------|-----------------|
||----------------------|-3-----2-----0---|

                   1.,2.,3.
  E E E E E E E E   E E E E E E E E   4x
|-----------------|-------------------||
|-0---------0-----|------------------o||
|---2-0-2-------2-|-----2-----2-------||
|-----------------|---2-----2-----2---||
|-----------------|-0-----0-----0----o||
|-0-------0---0---|-------------------||

 Pre-Chorus
  4.
 4/4
  E E E E E E E E   E E E E E E E E   
|-----------------|-----------------|
|-------0-----0-1-|-----1-----3-----|
|-----2-----0-----|---2-----0-----0-|
|---2-------------|-----------------|
|-0---------------|-0-----2-----2---|
|---------3-------|-----------------|


  Q  E E Q  Q    +E  Q  Q  Q
|-0------------|-----------------|
|------3-1--3--|-(3)----1p=0-----|
|----0---2-----|-----------0-----|
|--------------|-----2-----------|
|-3------------|-----------------|
|--------------|-----------------|

                                                     3/4
  Q.   E E Q  E   E E E E E E E E   E E E E E E E E   E E E E E E
|---------------|-----------------|-----------------|-0-----1------|
|---------------|-------0-----0-1-|-----1-----3-----|---1-----1----|
|-2----0-2-2--0-|-2---2-----0-----|---2-----0-----0-|-----0-----2--|
|--------2------|---2-------------|-----------------|--------------|
|---------------|-0---------------|-0-----2-----2---|--------------|
|-1------0------|---------3-------|-----------------|-3-----1------|

                               Chorus
                               4/4
  E E E E E E   E E S S E E E   E E  E E E  E E E   E  E E E E E Q
|-2-----3-----|-4---5p0---7---|-8-7---------------|----------5------|
|---1-----0---|---0-----0---0-|-----10-8---10---7-|---10-7-----5----|
|-----2-----0-|---------------|--------9----9---7-|------7-----5----|
|-0-----------|---------------|-------------------|-0------0--------|
|-------------|---------------|-0--------0----0---|--------------0--|
|-------3-----|-0-------------|-------------------|-----------------|


  E E  E E E  E E E   E E E E E S S  E   E
|-8-7---------------|-----------------------|
|-----10-8---10---7-|---8---7-8---------(0)-|
|--------9----9---7-|---9---7-9-----(0)-----|
|-------------------|-0---0-----0h2---------|
|-0--------0----0---|-----------------------|
|-------------------|-----------------------|


  E E  E E E  E E E   E E  E  E E Q  E
|-8-7---------------|------8---------3--|
|-----10-8---10---7-|-----10-10-8----3--|
|--------9----9---7-|-----------9-------|
|-------------------|-0-0---------0-----|
|-0--------0----0---|-------------------|
|-------------------|-------------------|

 5/4                   6/4                   
  E E E E E E E E E E   E Q  E Q  E Q  E Q    
|-----------1---------|---0----0----0----0--|
|-----5-----1-----3---|---3----3----3----3--|
|-----5-----2-----3---|---2----2----2----2--|
|-----5-0---------3-0-|---------------------|
|---5-----------1-----|-0----0----0----0----|
|-3-------1---1-------|---------------------|

 4/4
  E Q  Q  Q  E   Q  Q  E E E E
|------------0-|-----------------|
|---------3----|-3---------3p0---|
|------2-------|----2----2-------|
|---3----------|-------3---------|
|-0------------|-----------------|
|--------------|-----------------|


 Interlude
  S S  E  E E E E E E   E E E E E E E E
|---------------------|-----------------|
|-0h1p(0)-1---------3-|-----1-----0-----|
|-----------2-----2---|-----------------|
|---------------2-----|---2-----2-----2-|
|-0-----------0-------|-0-----0-----0---|
|---------------------|-----------------|


  S S  E  E E E E E E   E E E E E E E E
|---------------------|-----------------|
|-0h1p(0)-1---------0-|-----------------|
|-----------2-----2---|-----2-----0-----|
|---------------2-----|---2-----2-----2-|
|-0-----------0-------|-0-----0-----0---|
|---------------------|-----------------|


  S S  E  E E E E E E   E E E E E E E E   
|---------------------|-----------------|
|-0h1p(0)-1---------0-|-----1-----3-----|
|-----------2-----2---|-----------------|
|---------------2-----|---2-----2-----2-|
|-0-----------0-------|-0-----0-----0---|
|---------------------|-----------------|

  E E E E E E E E   E E E E E E E E
|-----------------|------------------|
|-5---5-3---3-1---|-1-0---0---0-1-0--|
|---5-----4-----2-|-----0---2--------|
|-----------------|------------------|
|-0-----0-----0---|---0-----0--------|
|-----------------|------------------|


 Bridge
  E E E E E E E E   E E E E E E E E   
|-0---0-----------|---------1p0-----|
|---3---1-----1-0-|-----3-------3---|
|-----------0-----|---0---0-------0-|
|-----------------|-----------------|
|-3-------3-------|-2---2---2-------|
|-----------------|-----------------|

  E E E E E E E E   E E E E E E E E
|-0---0-----------|---------1p0-----|
|---3---1-----1-0-|-----3-------3---|
|-----------2-----|---0---0-------0-|
|-----------------|-----------------|
|-0-------0-------|-----------------|
|-----------------|-3---3---3-------|



  E E E E E E E E   E E E E E E E E   
|-0---0-----------|---------1p0-----|
|---3---1-----1-0-|-----3-------3---|
|-----------0-----|---0---0-------0-|
|-----------------|-----------------|
|-3-------3-------|-2---2---2-------|
|-----------------|-----------------|

  E E E E E E E E   E E E E E E E E
|-0---0-----------|-----------------|
|---3---1-----1-0-|-----------------|
|-----------2-----|-----0-----0-----|
|-----------------|---0-----0-----0-|
|-0-------0-------|-----------------|
|-----------------|-3-----2-----0---|


 Pre-Chorus
  E E E E E E E E   E E E E E E E E   
|-----------------|-----------------|
|-0---------0-----|-----0---1---3---|
|---2-0-2---0---0-|-2-----0---0---0-|
|-----------------|---2-------------|
|-----------------|-0-------0---2---|
|-0-------0---0---|-----3-----------|

                   3/4
  E E E E E E E E   E E S S E E 
            
Submit corrections

↑ Back to top | Tablatures and chords for acoustic guitar and electric guitar, ukulele, drums are parodies/interpretations of the original songs. You may use it for private study, scholarship, research or language learning purposes only