» » »

Ginuwine - Where Did You Go Tabs

Artists:  A B C D E F G H I J K L M N O P Q R S T U V W X Y Z # 

Where Did You Go Tabs

(ver. 1) Click to play this song!
Ginuwine
 Rating:
4.2/5 (5 votes)

 Where Did You Go lessons Tabs too difficult? Try these video lessons and learn fast
 
                

/ = slide up
\ = slide down
b = bend
r = release bend
h = hammer on
p = pull off

Let Ring Throughout

Standard Tuning (EADGBe)

----------|----------------------------|------------|-x----x-|----------------|
----------|--------5--------------5----|------------|-5/7--7-|----------------|
----------|-----------5----------------|------------|-4/6--6-|----------------|
----------|----------------------------|------------|--------|----------------|
----------|----------------------------|-5/7-5------|--------|----------------|
----------|----------------------------|------------|--------|----------------|
  Chorus           h  h           h

----------|-9----9--------9-----------------0----------9----9----9-----9------|
----------|-10---10----10---------------------0h2p0----10---10---10------10---|
----------|-x----x-------------------------------------x----x----x------------|
----------|-------------------------------------------------------------------|
----------|-------------------------------------------------------------------|
----------|-------------------------------------------------------------------|
  Verse
------------------0---------|-------|-----------------------------------------|
--------------------0h2p0---|-------|-----------------------------------------|
----------------------------|-------|-----------------------------------------|
----------------------------|-------|-----------------------------------------|
----------------------------|-------|-----------------------------------------|
----------------------------|-------|-----------------------------------------|
                              Verse
----------|-9----------------------------------------------------|------------|
----------|-10---------------5------5----------------------------|------------|
----------|-x--------------7-----4--------------14-14--14--x-9---|------------|
----------|-------------------------------------14-14--14--x-7---|------------|
----------|------------------------------------------------------|------------|
----------|------------------------------------------------------|------------|

Interlude play for chorus right after
            
Submit corrections


        Where Did You Go lessons Hard to play? Try these video lessons and learn fast Where Did You Go lessons
        
↑ Back to top | Tablatures and chords for acoustic guitar and electric guitar, ukulele, drums are parodies/interpretations of the original songs. You may use it for private study, scholarship, research or language learning purposes only