» » »

Ghost - Dance Macabre Bass

Artists:  A B C D E F G H I J K L M N O P Q R S T U V W X Y Z # 

Dance Macabre Bass

(ver. 1) Click to play this song!
Ghost
 Rating:
4.3/5 (10 votes)

 Dance Macabre lessons Tabs too difficult? Try these video lessons and learn fast
 
                [Intro]
(Bass enters at 00:14)

F|---------|-----------------|-----------------|-----------------|-----------------|
C|---------|-----------------|-----------------|-----------------|-----------------|
G|---------|-----------------|-----------------|-----------------|-----------------|
D|-------0-|-3-5---5-5-5-0-0-|-3-5---1-1-1-8-8-|---3-3-3-3-3-3-3-|-X-3-3-3-3-3-0---|
   1 2 3 4   1 + 2 + 3 + 4 +   1 + 2 + 3 + 4 +   1 + 2 + 3 + 4 +   1 + 2 + 3 + 4 +  

F|-----------------|-----------------|-----------------|-----------------|
C|-----------------|-----------------|-----------------|-----------------|
G|-----------------|-----------------|-----------------|-----------------|
D|-3-5---5-5-5-0-0-|-3-5---1-1-1-8-8-|---3-3-3-3-3-3-3-|-X-3-3-3-3-3-0-0-|
   1 + 2 + 3 + 4 +   1 + 2 + 3 + 4 +   1 + 2 + 3 + 4 +   1 + 2 + 3 + 4 +  

[Verse]

F|-----------------|-----------------|-----------------|-----------------|
C|-----------------|-----------------|-----------------|-----------------|
G|-----------------|-----------------|-----------------|-----------------|
D|-5-5-5-5-5-5-5-5-|-5-5-5-0-0-0-0-0-|-3-3-3-3-3-3-3-3-|-3-3-3-3-3-3-0-0-|
   1 + 2 + 3 + 4 +   1 + 2 + 3 + 4 +   1 + 2 + 3 + 4 +   1 + 2 + 3 + 4 +  

F|-----------------|-----------------|-----------------|-----------------|
C|-----------------|-----------------|-----------------|-----------------|
G|-----------------|-----------------|-----------------|-----------------|
D|-5-5-5-5-5-5-5-5-|-5-5-5-0-0-0-0-0-|-3-3-3-3-3-3-3-3-|-3-3-3-3-3-3-3-3-|
   1 + 2 + 3 + 4 +   1 + 2 + 3 + 4 +   1 + 2 + 3 + 4 +   1 + 2 + 3 + 4 +  

F|-----------------|-----------------|-------9\------4---|-----------------|
C|-----------------|-----------------|----10-------5---3-|-3-3-3-3-3-3-2-2-|
G|-------3-3-3-3---|-----------------|-12------7-7-------|-----------------|
D|-1-1-1---------3-|-3-3-3-3-3-3-3-3/|-------------------|-----------------|
   1 + 2 + 3 + 4 +   1 + 2 + 3 + 4 +   1  +  2 + 3 + 4 +   1 + 2 + 3 + 4 +  

F|-----7-5-5-5-5---|-----------------|-----------------|-----------------|
C|-----------------|-----------------|-------------5-5-|-----------------|
G|-5-5-------------|-------------3-3-|-----------------|-----------------|
D|---------------3-|-3-3-3-5-5-5-----|---3-------L-----|-3-3-3-3-3-3-0-0-|
   1 + 2 + 3 + 4 +   1 + 2 + 3 + 4 +   1 + 2 + 3 + 4 +   1 + 2 + 3 + 4 +  

[Chorus]

F|-----------------|-----------------|-----------------|-----------------|
C|-----------------|-----------------|-----------------|-5---------------|
G|-----------------|-----------------|-----------------|-----------------|
D|-3-5---5-5-5-0-0-|-3-5---1-1-1-8-8-|---3-3-3-3-3-3-3-|---3-3-3-3-3-0---|
   1 + 2 + 3 + 4 +   1 + 2 + 3 + 4 +   1 + 2 + 3 + 4 +   1 + 2 + 3 + 4 +  

F|-----------------|-----------------|-----------------|-----------------|
C|-----------------|-----------------|-------------5-5-|-----------------|
G|-----------------|-----------------|-----------------|-----------------|
D|-3-5---5-5-5-0-0-|-3-5---1-1-1-8-8-|---0-3-3-3-3-----|---0-3-3-3-3-0-0-|
   1 + 2 + 3 + 4 +   1 + 2 + 3 + 4 +   1 + 2 + 3 + 4 +   1 + 2 + 3 + 4 +  

[Verse II]

F|-----------------|-----------------|-----------------|-----------------|
C|-----------------|-----------------|-----------------|-----------------|
G|-----------------|-----------------|-----------------|-----------------|
D|-5-5-5-5-5-5-5-5-|-5-5-5-0-0-0-0-0-|-3-3-3-3-3-3-3-3-|-3-3-3-3-3-3-0-0-|
   1 + 2 + 3 + 4 +   1 + 2 + 3 + 4 +   1 + 2 + 3 + 4 +   1 + 2 + 3 + 4 +  

F|-----------------|-----------------|-----------------|-----------------|
C|-----------------|-----------------|-----------------|-----------------|
G|-----------------|-----------------|-----------------|-----------------|
D|-5-5-5-5-5-5-5-5-|-5-5-5-0-0-0-0-0-|-3-3-3-3-3-3-3-3-|-3-3-3-3-3-3-3-3-|
   1 + 2 + 3 + 4 +   1 + 2 + 3 + 4 +   1 + 2 + 3 + 4 +   1 + 2 + 3 + 4 +  

F|-----------------|-----------------|-------9\------4---|-----------------|
C|-----------------|-----------------|----10-------5---3-|-3-3-3-3-3-3-2-2-|
G|-------3-3-3-3---|-----------------|-12------7-7-------|-----------------|
D|-1-1-1---------3-|-3-3-3-3-3-3-3-3/|-------------------|-----------------|
   1 + 2 + 3 + 4 +   1 + 2 + 3 + 4 +   1  +  2 + 3 + 4 +   1 + 2 + 3 + 4 +  

F|-----7-5-5-5-5---|-----------------|-----------------|-----------------|
C|-----------------|-----------------|-------------5-5-|-----------------|
G|-5-5-------------|-------------3-3-|-----------------|-----------------|
D|---------------3-|-3-3-3-5-5-5-----|---3-------L-----|-3-3-3-3-3-3-0-0-|
   1 + 2 + 3 + 4 +   1 + 2 + 3 + 4 +   1 + 2 + 3 + 4 +   1 + 2 + 3 + 4 +  

[Chorus II]

F|-----------------|-----------------|-----------------|-----------------|
C|-----------------|-----------------|---------5-------|-----------------|
G|-----------------|-----------------|-----------------|-----------------|
D|-3-5---5-5-5-0-0-|-3-5---1-1-1-8-8-|---3-3-3---3-3-3-|-3-3-3-3-3-3-0---|
   1 + 2 + 3 + 4 +   1 + 2 + 3 + 4 +   1 + 2 + 3 + 4 +   1 + 2 + 3 + 4 +  

F|-----------------|-----------------|-----------------|-----------------|
C|-----------------|-----------------|-----------------|-----------------|
G|-----------------|-----------------|-----------------|-------------0-0-|
D|-3-5---5-5-5-0-0-|-3-5---1-1-1-8-8-|---3-3-3-3-3-3-3-|-3-3-3-3-3-3-----|
   1 + 2 + 3 + 4 +   1 + 2 + 3 + 4 +   1 + 2 + 3 + 4 +   1 + 2 + 3 + 4 +  

F|-----------------|-----------------|-----------------|----------------------|
C|-----------------|-----------------|-----------------|----------------------|
G|-3-5---5-5-5-0-0-|-3-5\------------|-3-3-3-3-3-3-3-3-|-3/10-10-10-10-10-----|
D|-----------------|-------1-1-1-1-1-|-----------------|------------------0---|
   1 + 2 + 3 + 4 +   1 + 2 + 3 + 4 +   1 + 2 + 3 + 4 +   1 +  2  +  3  +  4 +  

F|-----------------|-----------------|-----------------|-----------------|
C|-----------------|-----------------|-------------5-5-|-----------------|
G|-----------------|-----------------|-----------------|------------/10\-|
D|-3-5---5-5-5-0-0-|-3-5---1-1-1-8-8-|---0-3-3-3-3-----|---0-3-3-3-3-----|
   1 + 2 + 3 + 4 +   1 + 2 + 3 + 4 +   1 + 2 + 3 + 4 +   1 + 2 + 3 + 4 +  

[Guitar Solo]

F|-----------------|-----------------|-----------------|-----------------|
C|-----------------|-----------------|-----------------|-----------------|
G|-----------------|-----------------|-----------------|-------------15\-|
D|-3-5---5-5-5-0-0-|-3-5---1-1-1/8-8-|---3-3-3-3-3-3-3-|-3-3-3-3-3-3/----|
   1 + 2 + 3 + 4 +   1 + 2 + 3 + 4 +   1 + 2 + 3 + 4 +   1 + 2 + 3 + 4 +  

F|-----------------|-----------------|-----------------|-----------------|
C|-----------------|-----------------|-----------------|-----------------|
G|-----------------|-----------------|-----------------|-------------10\-|
D|-3-5---5-5-5-0-0-|-3-5---1-1-1/8-8-|---3-3-3-3-3-3-3-|-3-3-3-3-3-3-----|
   1 + 2 + 3 + 4 +   1 + 2 + 3 + 4 +   1 + 2 + 3 + 4 +   1 + 2 + 3 + 4 +  

F|-----------------|-----------------|-----------------|-----------------|
C|-----3-----------|-----------------|-----------------|-----------------|
G|-------3-3-3-3-3-|-----------------|-----------------|-----------------|
D|-1-1-------------|-3-3-3-3-3-3-3-3/|-8-8-8-3-3-3-3-3-|-0-0-0-0-0-0-0-0-|
   1 + 2 + 3 + 4 +   1 + 2 + 3 + 4 +   1 + 2 + 3 + 4 +   1 + 2 + 3 + 4 +  

F|-----------------|-----------------|-----------------|-----------------|
C|-----------------|-----------------|-------------5-5-|-----------------|
G|/5-5-5-3-3-3-3-3-|-2-2-2-0-0-0-0-0-|-----------------|-----------------|
D|-----------------|-----------------|---3-3-----L-----|---0-3-3-3-3-12\-|
   1 + 2 + 3 + 4 +   1 + 2 + 3 + 4 +   1 + 2 + 3 + 4 +   1 + 2 + 3 + 4 +  

[Breakdown]

F|---------|---------|---------|---------14h17p|14----L|
C|---------|---------|---------|---------------|-------|
G|---------|---------|---------|---------------|-------|
D|-r-------|-r-------|-r-------|---------------|-------|
   1 2 3 4   1 2 3 4   1 2 3 4   1 2 3 4 +  -   1 2 3 4 

F|-------L-14-|-L\12-12-12-12-12-12-12-|-12-12-12-12-12-12-----|
C|------------|------------------------|-----------------------|
G|------------|------------------------|-----------------------|
D|------------|------------------------|-------------------0---|
   1 2 3 4 +    1 +  2  +  3  +  4  +    1  +  2  +  3  +  4 +  

[Final Chorus]

F|-----------------|-----------------|-----------------|-----------------|
C|-----------------|-----------------|-----------------|-----------------|
G|-----------------|-----------------|-----------------|-----------------|
D|-3-5---5-5-5-0-0-|-3-5---1-1-1-8-8-|---3-3-3-3-3-3-3-|-X-3-3-3-3-3-0---|
   1 + 2 + 3 + 4 +   1 + 2 + 3 + 4 +   1 + 2 + 3 + 4 +   1 + 2 + 3 + 4 +  

F|-----------------|-----------------|-----------------|-----------------|
C|-----------------|-----------------|-----------------|-----------------|
G|-----------------|-----------------|-----------------|-----------------|
D|-3-5---5-5-5-0-0-|-3-5---1-1-1-8-8-|---3-3-3-3-3-3-3-|-3-3-3-3-3-3-0---|
   1 + 2 + 3 + 4 +   1 + 2 + 3 + 4 +   1 + 2 + 3 + 4 +   1 + 2 + 3 + 4 +  

F|-----------------|-----------------|-----------------|-----------------|
C|-----------------|-----------------|-----------------|-----------------|
G|-----------------|-----------------|-----------------|-----------------|
D|-3-5---5-5-5-0-0-|-3-5---1-1-1-8-8-|---3-3-3-3-3-3-3-|-3-3-3-3-3-3-X-X-|
   1 + 2 + 3 + 4 +   1 + 2 + 3 + 4 +   1 + 2 + 3 + 4 +   1 + 2 + 3 + 4 +  

F|-----------------|-----------------|-----------------|-----------------|
C|-----------------|-----------------|-------------5-5-|-----------------|
G|-----------------|-----------------|-----------------|-----------------|
D|-3-5---5-5-5-0-0-|-3-5---1-1-1/8-8-|---3-------L-----|---3-----------L-|
   1 + 2 + 3 + 4 +   1 + 2 + 3 + 4 +   1 + 2 + 3 + 4 +   1 + 2 + 3 + 4 +  

            
Submit corrections


        Dance Macabre lessons Hard to play? Try these video lessons and learn fast Dance Macabre lessons
        
↑ Back to top | Tablatures and chords for acoustic guitar and electric guitar, ukulele, drums are parodies/interpretations of the original songs. You may use it for private study, scholarship, research or language learning purposes only