Home » G » Ghinzu »

Ghinzu - Mirror Mirror Tabs

Artists:  A B C D E F G H I J K L M N O P Q R S T U V W X Y Z # 

Mirror Mirror Tabs

(ver. 1) Click to play this song!
Ghinzu
Bass Intro (0:00)

   A
g--------------------|
d----7-7-7-5--5-5-7--|
a--------------------| x42
e--5-----------------|



Guitar riff A (1:18)

    A
e-------------------|
b-------------------|
g-------------------|
d----7-5------------| x8
a---------8-7--5-7--|
e--5----------------|



Guitar riff B (1:33)

   C                     F                  Gm                    Gm
e---------------------|------------------|---------------------|---------------------|
b---------------------|------------------|---------------------|---------------------|
g---------------------|------------------|---------------------|---------------------|
d----10-10-10-9-9-10--|----12-12-12-9-9--|-----12-12-12-10-10--|-----12-12-12-13-13--|
a---------------------|--8---------------|--10-----------------|--10-----------------|
e--8------------------|------------------|---------------------|---------------------|
                    x4                 x2



Guitar riff A (x8) (1:47)



Guitar riff B (2:03)



Verse (2:17)

A
Why don't you dream about yourself
                    Gm            F
Forget the long way home and try me?
          Em
I'm beautiful
A                      Gm           F
Why don't you kiss me now, and try me?
         Em              Dm
I'm beautiful you'll see



Chorus (2:46)

Dm     Gm          F
Let me in, let me out
           A
Shallow me slowly



Guitar riff A (3:01)

    A
e-------------------|
b-------------------|
g-------------------|
d----7-5------------| x8
a---------8-7--5-7--|
e--5----------------|



Guitar riff B (3:14)

   C                     F                   Gm                   Gm
e---------------------|------------------|---------------------|---------------------|
b---------------------|------------------|---------------------|---------------------|
g---------------------|------------------|---------------------|---------------------|
d----10-10-10-9-9-10--|----12-12-12-9-9--|-----12-12-12-10-10--|-----12-12-12-13-13--|
a---------------------|--8---------------|--10-----------------|--10-----------------|
e--8------------------|------------------|---------------------|---------------------|
                    x4                 x2 



Verse (3:29)

A
Why don't you forget about yourself,
                     Gm           F
Forget the long way home and try me?
          Em
I'm beautiful
A                      Gm           F
Why don't you kill me now, and try me?
        Em              Dm
I'm beautiful you'll see



Chorus (3:57)

Dm      Gm           F
Let me in, burn me out
            A      Dm
Swallow me slowly now
                  Gm
I'm down in your throat my love
           F
I can hear you singing
              A               Dm
I can hear you screaming your joy



Outro (4:27)

Dm  C  A   Dm  
F   C  Gm  F  
A   A  Dm            
Submit corrections

↑ Back to top | Tablatures and chords for acoustic guitar and electric guitar, ukulele, drums are parodies/interpretations of the original songs. You may use it for private study, scholarship, research or language learning purposes only