» » »

Gg Allin - Tough Fucking Shit Tabs

Artists:  A B C D E F G H I J K L M N O P Q R S T U V W X Y Z # 

Tough Fucking Shit Tabs

(ver. 1) Click to play this song!
Gg Allin
 Rating:
4.3/5 (15 votes)

 Tough Fucking Shit lessons Tabs too difficult? Try these video lessons and learn fast
 
                [Intro]
e|-----------------------------|-----------------------------|
b|-----------------------------|-----------------------------|
G|-6-6--4-3-4---6-4-3----------|-6-6--4-3-4---6-4-3----------|
D|--------------------3-4------|--------------------3-4------|
A|-----------------------------|-----------------------------|
E|-----------------------------|-----------------------------|

[Verse]
e|------------------------------------------------|
b|------------------------------------------------|
G|------------------------------------------------|
D|-4-4-4-4--4-4--4-4--4\3--4-4-4-4--4-4--4-4--4\3-|
A|-4-4-4-4--4-4--4-4--4\3--4-4-4-4--4-4--4-4--4\3-|
E|-2-2-2-2--2-2--2-2--2\1--2-2-2-2--2-2--2-2--2\1-|

("Well last night I went drinkin up and trippin too, Hangin out in every bar that's down on Cedar Street")
e|------------------------------------------------|------------------------------------------------|
b|------------------------------------------------|------------------------------------------------|
G|------------------------------------------------|------------------------------------------------|
D|-4-4-4-4--4-4--4-4--4\3--4-4-4-4--4-4--4-4--4\3-|-4-4-4-4--4-4--4-4--4\3--4-4-4-4--4-4--4-4--4\3-|
A|-4-4-4-4--4-4--4-4--4\3--4-4-4-4--4-4--4-4--4\3-|-4-4-4-4--4-4--4-4--4\3--4-4-4-4--4-4--4-4--4\3-|
E|-2-2-2-2--2-2--2-2--2\1--2-2-2-2--2-2--2-2--2\1-|-2-2-2-2--2-2--2-2--2\1--2-2-2-2--2-2--2-2--2\1-|

("Well f**kin round with sl*ts & whores is nothing new, But don't f**k with us or we're gonna f**k with you")
e|------------------------------------------------|------------------------------------------------|
b|------------------------------------------------|------------------------------------------------|
G|-4-4-4-4--4-4--4-4--4\3--4-4-4-4--4-4--4-4--4\3-|------------------------------------------------|
D|-4-4-4-4--4-4--4-4--4\3--4-4-4-4--4-4--4-4--4\3-|-4-4-4-4--4-4--4-4--4\3--4-4-4-4--4-4--4-4--4\3-|
A|-2-2-2-2--2-2--2-2--2\1--2-2-2-2--2-2--2-2--2\1-|-4-4-4-4--4-4--4-4--4\3--4-4-4-4--4-4--4-4--4\3-|
E|------------------------------------------------|-2-2-2-2--2-2--2-2--2\1--2-2-2-2--2-2--2-2--2\1-|

[Chorus]
("We're just sl*ts and living like scumfuc alley trash, So if we p**s you off that's just Tough f**king sh*t")
e|----------------------------------|-----------------------------------|
b|----------------------------------|-----------------------------------|
G|-6-6-6-6-6-6-6-6--4-4-4-4-4-4-4-4-|----------4-4-4-4--6-6-6-6-6-------|
D|-6-6-6-6-6-6-6-6--4-4-4-4-4-4-4-4-|-4-4-4-4--4-4-4-4--6-6-6-6-6-------|
A|-4-4-4-4-4-4-4-4--2-2-2-2-2-2-2-2-|-4-4-4-4--2-2-2-2--4-4-4-4-4-------|
E|----------------------------------|-2-2-2-2---------------------------|

[Intro]
e|-----------------------------|-----------------------------|
b|-----------------------------|-----------------------------|
G|-6-6--4-3-4---6-4-3----------|-6-6--4-3-4---6-4-3----------|
D|--------------------3-4------|--------------------3-4------|
A|-----------------------------|-----------------------------|
E|-----------------------------|-----------------------------|

[Verse]
e|------------------------------------------------|
b|------------------------------------------------|
G|------------------------------------------------|
D|-4-4-4-4--4-4--4-4--4\3--4-4-4-4--4-4--4-4--4\3-|
A|-4-4-4-4--4-4--4-4--4\3--4-4-4-4--4-4--4-4--4\3-|
E|-2-2-2-2--2-2--2-2--2\1--2-2-2-2--2-2--2-2--2\1-|

("Well I hate my family- they can all go suck my ass, Everyone hates my guts and wants to kill me")
e|------------------------------------------------|------------------------------------------------|
b|------------------------------------------------|------------------------------------------------|
G|------------------------------------------------|------------------------------------------------|
D|-4-4-4-4--4-4--4-4--4\3--4-4-4-4--4-4--4-4--4\3-|-4-4-4-4--4-4--4-4--4\3--4-4-4-4--4-4--4-4--4\3-|
A|-4-4-4-4--4-4--4-4--4\3--4-4-4-4--4-4--4-4--4\3-|-4-4-4-4--4-4--4-4--4\3--4-4-4-4--4-4--4-4--4\3-|
E|-2-2-2-2--2-2--2-2--2\1--2-2-2-2--2-2--2-2--2\1-|-2-2-2-2--2-2--2-2--2\1--2-2-2-2--2-2--2-2--2\1-|

("Well I'd just like to slit some throats and watch you die, My revenge is my reality- so don't f**k with me")
e|------------------------------------------------|------------------------------------------------|
b|------------------------------------------------|------------------------------------------------|
G|-4-4-4-4--4-4--4-4--4\3--4-4-4-4--4-4--4-4--4\3-|------------------------------------------------|
D|-4-4-4-4--4-4--4-4--4\3--4-4-4-4--4-4--4-4--4\3-|-4-4-4-4--4-4--4-4--4\3--4-4-4-4--4-4--4-4--4\3-|
A|-2-2-2-2--2-2--2-2--2\1--2-2-2-2--2-2--2-2--2\1-|-4-4-4-4--4-4--4-4--4\3--4-4-4-4--4-4--4-4--4\3-|
E|------------------------------------------------|-2-2-2-2--2-2--2-2--2\1--2-2-2-2--2-2--2-2--2\1-|

[Chorus]
("We're just sl*ts and living like scumfuc alley trash, So if we p**s you off that's just Tough f**king sh*t")
e|----------------------------------|-----------------------------------|
b|----------------------------------|-----------------------------------|
G|-6-6-6-6-6-6-6-6--4-4-4-4-4-4-4-4-|----------4-4-4-4--6-6-6-6-6-------|
D|-6-6-6-6-6-6-6-6--4-4-4-4-4-4-4-4-|-4-4-4-4--4-4-4-4--6-6-6-6-6-------|
A|-4-4-4-4-4-4-4-4--2-2-2-2-2-2-2-2-|-4-4-4-4--2-2-2-2--4-4-4-4-4-------|
E|----------------------------------|-2-2-2-2---------------------------|

[Intro]
e|-----------------------------|-----------------------------|
b|-----------------------------|-----------------------------|
G|-6-6--4-3-4---6-4-3----------|-6-6--4-3-4---6-4-3----------|
D|--------------------3-4------|--------------------3-4------|
A|-----------------------------|-----------------------------|
E|-----------------------------|-----------------------------|

[Verse]
("Well I can't get a job and I'm ugly and I'm no good, Everyone go blow Tammy,she's got big f**kin' tits")
e|------------------------------------------------|------------------------------------------------|
b|------------------------------------------------|------------------------------------------------|
G|------------------------------------------------|------------------------------------------------|
D|-4-4-4-4--4-4--4-4--4\3--4-4-4-4--4-4--4-4--4\3-|-4-4-4-4--4-4--4-4--4\3--4-4-4-4--4-4--4-4--4\3-|
A|-4-4-4-4--4-4--4-4--4\3--4-4-4-4--4-4--4-4--4\3-|-4-4-4-4--4-4--4-4--4\3--4-4-4-4--4-4--4-4--4\3-|
E|-2-2-2-2--2-2--2-2--2\1--2-2-2-2--2-2--2-2--2\1-|-2-2-2-2--2-2--2-2--2\1--2-2-2-2--2-2--2-2--2\1-|

("Well the law is always on my ass I'm on their list- f**k them, And I like to cut myself with broken glass")
e|------------------------------------------------|------------------------------------------------|
b|------------------------------------------------|------------------------------------------------|
G|-4-4-4-4--4-4--4-4--4\3--4-4-4-4--4-4--4-4--4\3-|------------------------------------------------|
D|-4-4-4-4--4-4--4-4--4\3--4-4-4-4--4-4--4-4--4\3-|-4-4-4-4--4-4--4-4--4\3--4-4-4-4--4-4--4-4--4\3-|
A|-2-2-2-2--2-2--2-2--2\1--2-2-2-2--2-2--2-2--2\1-|-4-4-4-4--4-4--4-4--4\3--4-4-4-4--4-4--4-4--4\3-|
E|------------------------------------------------|-2-2-2-2--2-2--2-2--2\1--2-2-2-2--2-2--2-2--2\1-|

[Chorus]
("We're just sl*ts and living like scumfuc alley trash, So if we p**s you off that's just Tough f**king sh*t")
e|----------------------------------|-----------------------------------|
b|----------------------------------|-----------------------------------|
G|-6-6-6-6-6-6-6-6--4-4-4-4-4-4-4-4-|----------4-4-4-4--6-6-6-6-6-------|
D|-6-6-6-6-6-6-6-6--4-4-4-4-4-4-4-4-|-4-4-4-4--4-4-4-4--6-6-6-6-6-----4-|
A|-4-4-4-4-4-4-4-4--2-2-2-2-2-2-2-2-|-4-4-4-4--2-2-2-2--4-4-4-4-4-----4-|
E|----------------------------------|-2-2-2-2-------------------------2-|

            
Submit corrections


        Tough Fucking Shit lessons Hard to play? Try these video lessons and learn fast Tough Fucking Shit lessons
        
↑ Back to top | Tablatures and chords for acoustic guitar and electric guitar, ukulele, drums are parodies/interpretations of the original songs. You may use it for private study, scholarship, research or language learning purposes only