Home » G » Gg Allin »

Gg Allin - Last In Line For The Gang Bang Tabs

Artists:  A B C D E F G H I J K L M N O P Q R S T U V W X Y Z # 

Last In Line For The Gang Bang Tabs

(ver. 1) Click to play this song!
Gg Allin
 Rating:
4/5 (4 votes)
                LAST IN LINE FOR THE GANG BANG,

Intro:
e|------------------------------------------|
B|------------------------------------------|
G|------------------------------------7-----|
D|--9-9--9--9-9--9--9-9--9--9-9--9----7-----|
A|--7-7--7--7-7--7--7-7--7--7-7--7----5-----|
E|------------------------------------------|
   pm--|   pm--|   pm--|   pm--|              Gang bang time!

1st verse:
e|-----------------------------------------------|
B|-----------------------------------------------|
G|-----------------------------------------------|
D|--9--7-----7--99999999---9--7-----7------------|
A|--7--5--9--5--77777777---9--7--9--5--77777777--|
E|--------7----------------------7-----55555555--|

Chorus:
e|---------------------|
B|---------------------|
G|------7-----5-----3--|
D|--7---7-----5-----3--|
A|--7---5-----3-----1--|
E|--5------------------|

2nd verse:
e|------------------------------|
B|------------------------------| play this 2x then go back into
G|------------------------------| the part played for the 1st verse.
D|--99999999999-9\7-7777777777--|
A|--77777777777-7\5-5555555555--|
E|------------------------------|
   (also play this for 3rd verse & solo)

There's at least 20 guys
Waiting on Suzie's thighs
Pumpin' cum in her twat
While I'm in the back jerkin' off

(chorus)
5-10-15-20, Her cunt is ???? her cunt is [runny???]
5-10-15-20, we're last in line, ain't got no money

I know I need the f**k
But that's just my f**kin' luck.....what f**kin' luck!!
By the time I get in front
You, you're a worthless cunt
Well, a f**k's a f**k, I just don't care
I'll even steal ever smelly underwear
(repeat chorus)

I'll fist-f**k her if I must
And I'll beat my dick  [and suck her crust???]
?????
Here I come.....already!  Ready?
Spread your slimey legs!
I'm always the f**kin' last
But it's a piece of f**king ass
????
You know what I'm talkin' about
?????
C'mon Suzie!
(chorus)

(best I can do for the lyrics. the ones in breackets []
 are ones I'm not sure are correct.)
            
Submit corrections

↑ Back to top | Tablatures and chords for acoustic guitar and electric guitar, ukulele, drums are parodies/interpretations of the original songs. You may use it for private study, scholarship, research or language learning purposes only