» » »

Gg Allin - I Kill Everything I Fuck Bass

Artists:  A B C D E F G H I J K L M N O P Q R S T U V W X Y Z # 

I Kill Everything I Fuck Bass

(ver. 1) Click to play this song!
Gg Allin
 Rating:
2.8/5 (29 votes)

 I Kill Everything I Fuck lessons Tabs too difficult? Try these video lessons and learn fast
 
                Verse:

G:-----------------------------------   -----------------------------------
D:-----------------------------------   -----------------------------------
A:---3-------------------------------   ---3-------------------------------
E:-----3--5--5-5-5-5-5-5-5-5-5-5-5---x2 -----3--3--3-3-3-3-3-3-3-3-3-3-3---x1

G:-----------------------------------
D:-----------------------------------
A:---3-------------------------------
E:-----3--5--5-5-5-5-5-5-5-5-5-5-5---x1

Chorus:

G:---------------------------------------------------------
D:---------------------------------------------------------
A:---8--X-8------------------------------------------------
E:------------8--X-8----3-5-5-5-5-5-5-5--3-5-5-5-5-5-5-5---

Post-Chorus:

G:------------------------------------------------------------------------   -------
D:-------------------------------------3-3-3-3-3-3-3-3--5-5-5-5-5-5-5-5---   ---5---
A:---3-3-3-3-3-3-3-3--5-5-5-5-5-5-5-5-------------------------------------   -------
E:------------------------------------------------------------------------x1 -------x1

Bridge (before the Solo):

G:-----------------------------------
D:-----------------------------------
A:---3-------------------------------
E:-----3--5--5-5-5-5-5-5-5-5-5-5-5---

Outro:

G:-----------------------------------   ------------
D:-----------------------------------   ------------
A:---3-------------------------------   ---3--------
E:-----3--5--5-5-5-5-5-5-5-5-5-5-5---x7 -----3--5---x1

The order is:
.Verse x2
.Chorus x2
.Post-Chorus x1
.Verse x2
.Chorus x2
.Post-Chorus x1
.Bridge x2
.Verse x2 (It's the bass line during the Solo)
.Chorus x2
.Post-Chorus x1
.Outro x1

            
Submit corrections


        I Kill Everything I Fuck lessons Hard to play? Try these video lessons and learn fast I Kill Everything I Fuck lessons
        
↑ Back to top | Tablatures and chords for acoustic guitar and electric guitar, ukulele, drums are parodies/interpretations of the original songs. You may use it for private study, scholarship, research or language learning purposes only