Home » G » Gg Allin »

Gg Allin - Fuck Women Ive Never Had Bass

Artists:  A B C D E F G H I J K L M N O P Q R S T U V W X Y Z # 

Fuck Women Ive Never Had Bass

(ver. 1) Click to play this song!
Gg Allin
 Rating:
4/5 (4 votes)
                Whole Song
G---------------------------------|---------------------------------|
D---------------------------------|---------------------------------|
A---------3-3-3-3-----------------|-1-1-1-1---------3-3-3-3-3-3-3-3-|
E-1-1-1-1---------1-1-1-1-1-1-1-1-|---------1-1-1-1-----------------|

G---------------------------------|---------------------------------|
D---------------------------------|---------------------------------|
A-1-1-1-1-1-1-1-1---------1-1-1-1-|---------3-3-3-3-----------------|
E-----------------1-1-1-1---------|-1-1-1-1---------1-1-1-1-1-1-1-1-|


Basically it's just played 3 times in a row. The only thing is on the very last bar of the song the 
ending is this:
G---------------------------------|
D---------------------------------|
A---------3-3-3-3-----------1-----|
E-1-1-1-1---------1-1-1-1-1---1---|            
Submit corrections

↑ Back to top | Tablatures and chords for acoustic guitar and electric guitar, ukulele, drums are parodies/interpretations of the original songs. You may use it for private study, scholarship, research or language learning purposes only