» » »

Gg Allin - Cunt Sucking Cannibal Bass

Artists:  A B C D E F G H I J K L M N O P Q R S T U V W X Y Z # 

Cunt Sucking Cannibal Bass

(ver. 1) Click to play this song!
Gg Allin
 Rating:
4/5 (4 votes)

 Cunt Sucking Cannibal lessons Tabs too difficult? Try these video lessons and learn fast
 
                Intro                            x4
G----------------------------------|
D----------------------------------|
A----------------------------------|(Mute it)
E-----------------------------0----|   


Verse
G--------------------|
D--------------------|
A--7-7--3-3--5-5-5-5-|
E--------------------|


Chorus
  "Cunt!.........Sucking!"   x4   "Cannibal!" x4 
G------------------------------|----------------|
D------------------------------|----------------|
A--10---------------8----------|--33--55-77-777-|
E-----10--101010------8--8-8-8-|----------------|

            
Submit corrections


        Cunt Sucking Cannibal lessons Hard to play? Try these video lessons and learn fast Cunt Sucking Cannibal lessons
        
↑ Back to top | Tablatures and chords for acoustic guitar and electric guitar, ukulele, drums are parodies/interpretations of the original songs. You may use it for private study, scholarship, research or language learning purposes only