» » »

Gg Allin - Automatic Tabs

Artists:  A B C D E F G H I J K L M N O P Q R S T U V W X Y Z # 

Automatic Tabs

(ver. 1) Click to play this song!
Gg Allin
 Rating:
3.9/5 (23 votes)

 Automatic lessons Tabs too difficult? Try these video lessons and learn fast
 
                Tuning: Standard

e|---------------------------------------------------------------------------|
B|---------------------------------------------------------------------------|
G|---------------------------------4--4-4-4-4-4-4-4--4--4-4------------------|
D|-6--6-6-6-6-6-6--4--4-4-4-4-4-4--2--2-2-2-2-2-2-2--2--2-2------------------|
A|-4--4-4-4-4-4-4--2--2-2-2-2-2-2--------------------------------------------|
E|---------------------------------------------------------------------------|
   Everything you do is the same! (Same Same!)

e|---------------------------------------------------------------------------|
B|---------------------------------------------------------------------------|
G|---------------------------------4--4-4-4-4-4-4-4--4--4-4------------------|
D|-6--6-6-6-6-6-6--4--4-4-4-4-4-4--2--2-2-2-2-2-2-2--2--2-2------------------|
A|-4--4-4-4-4-4-4--2--2-2-2-2-2-2--------------------------------------------|
E|---------------------------------------------------------------------------|
      Over and over,        it's like a game! (Game Game!)

e|---------------------------------------------------------------------------|
B|---------------------------------------------------------------------------|
G|---------------------------------4--4-4-4-4-4-4-4--4--4-4------------------|
D|-6--6-6-6-6-6-6--4--4-4-4-4-4-4--2--2-2-2-2-2-2-2--2--2-2------------------|
A|-4--4-4-4-4-4-4--2--2-2-2-2-2-2--------------------------------------------|
E|---------------------------------------------------------------------------|
   Think   You're     miss       High society! (Wowee!)

e|---------------------------------------------------------------------------|
B|---------------------------------------------------------------------------|
G|---------------------------------4--4-4-4-4-4-4-4--4--4-4------------------|
D|-6--6-6-6-6-6-6--4--4-4-4-4-4-4--2--2-2-2-2-2-2-2--2--2-2------------------|
A|-4--4-4-4-4-4-4--2--2-2-2-2-2-2--------------------------------------------|
E|---------------------------------------------------------------------------|
   F**kin' all the Rockstars that you meet! (F**K ME!)

e|---------------------------------------------------------------------------|
B|---------------------------------------------------------------------------|
G|-6--6-6-6-6-6-6------------------------------------------------------------|
D|-4--4-4-4-4-4-4--6--6-6-6-6-6--4--4-4-4-4-4-4-4--4-4-4-4-4-----------------|
A|-----------------4--4-4-4-4-4--2--2-2-2-2-2-2-2--2-2-2-2-2-----------------|
E|---------------------------------------------------------------------------|
   Makes no sense the things you do or say girl. 

e|---------------------------------------------------------------------------|
B|---------------------------------------------------------------------------|
G|-6--6-6-6-6-6-6------------------------------------------------------------|
D|-4--4-4-4-4-4-4--6--6-6-6-6-6--4--4-4-4-4-4-4-4--4-4-4-4-4-----------------|
A|-----------------4--4-4-4-4-4--2--2-2-2-2-2-2-2--2-2-2-2-2-----------------|
E|---------------------------------------------------------------------------|
  Cause everything you say comes back to me.

e|---------------------------------------------------------------------------|
B|---------------------------------------------------------------------------|
G|-6--6-6-6-6-6-6------------------------------------------------------------|
D|-4--4-4-4-4-4-4--6--6-6-6-6-6--4--4-4-4-4-4-4-4--4-4-4-4-4-----------------|
A|-----------------4--4-4-4-4-4--2--2-2-2-2-2-2-2--2-2-2-2-2-----------------|
E|---------------------------------------------------------------------------|
  Don't go playin' with me emotionally

e|---------------------------------------------------------------------------|
B|---------------------------------------------------------------------------|
G|-6--6-6-6-6-6-6------------------------------------------------------------|
D|-4--4-4-4-4-4-4--6--6-6-6-6-6--4--4-4-4-4-4-4-4--4-4-4-4-4-----------------|
A|-----------------4--4-4-4-4-4--2--2-2-2-2-2-2-2--2-2-2-2-2-----------------|
E|---------------------------------------------------------------------------|
   Or I will make you bleed internally!

e|---------------------------------------------------------------------------|
B|---------------------------------------------------------------------------|
G|---------------------------------4--4-4-4-4-4-4-4--4--4-4------------------|
D|-6--6-6-6-6-6-6--4--4-4-4-4-4-4--2--2-2-2-2-2-2-2--2--2-2------------------|
A|-4--4-4-4-4-4-4--2--2-2-2-2-2-2--------------------------------------------|
E|---------------------------------------------------------------------------|
   Think you are   mister know it all! (Know all!)

e|---------------------------------------------------------------------------|
B|---------------------------------------------------------------------------|
G|---------------------------------4--4-4-4-4-4-4-4--4--4-4------------------|
D|-6--6-6-6-6-6-6--4--4-4-4-4-4-4--2--2-2-2-2-2-2-2--2--2-2------------------|
A|-4--4-4-4-4-4-4--2--2-2-2-2-2-2--------------------------------------------|
E|---------------------------------------------------------------------------|
 Standards high, but your value's small (Small! Small!)

e|---------------------------------------------------------------------------|
B|---------------------------------------------------------------------------|
G|---------------------------------4--4-4-4-4-4-4-4--4--4-4------------------|
D|-6--6-6-6-6-6-6--4--4-4-4-4-4-4--2--2-2-2-2-2-2-2--2--2-2------------------|
A|-4--4-4-4-4-4-4--2--2-2-2-2-2-2--------------------------------------------|
E|---------------------------------------------------------------------------|
  Class-A Assh*les tellin' you what to do! (What to do!)

e|---------------------------------------------------------------------------|
B|---------------------------------------------------------------------------|
G|---------------------------------4--4-4-4-4-4-4-4--4--4-4------------------|
D|-6--6-6-6-6-6-6--4--4-4-4-4-4-4--2--2-2-2-2-2-2-2--2--2-2------------------|
A|-4--4-4-4-4-4-4--2--2-2-2-2-2-2--------------------------------------------|
E|---------------------------------------------------------------------------|
   If you're from Boston, you gotta be cool! (F*CK YOU)

e|---------------------------------------------------------------------------|
B|---------------------------------------------------------------------------|
G|-6--6-6-6-6-6-6------------------------------------------------------------|
D|-4--4-4-4-4-4-4--6--6-6-6-6-6--4--4-4-4-4-4-4-4--4-4-4-4-4-----------------|
A|-----------------4--4-4-4-4-4--2--2-2-2-2-2-2-2--2-2-2-2-2-----------------|
E|---------------------------------------------------------------------------|
   Makes no sense the things you do or say girl. 

e|---------------------------------------------------------------------------|
B|---------------------------------------------------------------------------|
G|-6--6-6-6-6-6-6------------------------------------------------------------|
D|-4--4-4-4-4-4-4--6--6-6-6-6-6--4--4-4-4-4-4-4-4--4-4-4-4-4-----------------|
A|-----------------4--4-4-4-4-4--2--2-2-2-2-2-2-2--2-2-2-2-2-----------------|
E|---------------------------------------------------------------------------|
  Cause everything you say comes back to me.

e|---------------------------------------------------------------------------|
B|---------------------------------------------------------------------------|
G|-6--6-6-6-6-6-6------------------------------------------------------------|
D|-4--4-4-4-4-4-4--6--6-6-6-6-6--4--4-4-4-4-4-4-4--4-4-4-4-4-----------------|
A|-----------------4--4-4-4-4-4--2--2-2-2-2-2-2-2--2-2-2-2-2-----------------|
E|---------------------------------------------------------------------------|
  Don't go playin' with me emotionally

e|---------------------------------------------------------------------------|
B|---------------------------------------------------------------------------|
G|-6--6-6-6-6-6-6------------------------------------------------------------|
D|-4--4-4-4-4-4-4--6--6-6-6-6-6--4--4-4-4-4-4-4-4--4-4-4-4-4-----------------|
A|-----------------4--4-4-4-4-4--2--2-2-2-2-2-2-2--2-2-2-2-2-----------------|
E|---------------------------------------------------------------------------|
   Or I will make you bleed internally!


Solo

e|-----------------------------------------------12p9---9--12--14p12----12---|
B|---------------------------------12p9---9-12-------12-------------14----14-|
G|-11-11b(13)--11-9--11p9---9--11-------11-----------------------------------|
D|-----------------------11--------------------------------------------------|
A|---------------------------------------------------------------------------|
E|---------------------------------------------------------------------------|

e|---------------------------------------------------------------------------|
B|-14p12p-9--14p12p9--14p12p9--14p12p9--14p12p9--12-14~-14~-14~--14/17-17~/19|
G|---------------------------------------------------------------------------|
D|---------------------------------------------------------------------------|
A|---------------------------------------------------------------------------|
E|---------------------------------------------------------------------------|


e|-------------16---21p19p16-19p16\13----------------------------------------|
B|-19~-14h17h19------------------------19p17p14-19p17p14-19p17p14-19p17p14---|
G|---------------------------------------------------------------------------|
D|---------------------------------------------------------------------------|
A|---------------------------------------------------------------------------|
E|---------------------------------------------------------------------------|

e|----------------------------------------19--------------------------19-21p-|
B|-19p17p14-19p17p14-19p17p14-17--19--19b(21)-19pb-19br-17--17--19-/21-------|
G|--------------------------------------------------------18-----------------|
D|---------------------------------------------------------------------------|
A|---------------------------------------------------------------------------|
E|---------------------------------------------------------------------------|


e|-19--19--------------------------------------------------------------------|
B|---21---21--19p17--17------------------------------------------------------|
G|-----------------18---18-18p16---16--------------------------------16--18p-|
D|------------------------------18----18---16---14--16p14---14--16/18--------|
A|-------------------------------------------------------16------------------|
E|---------------------------------------------------------------------------|


e|--------------------------19-21p19-----------------------19----------------|
B|----------19p17---17h19/21--------21--19p17--17--19--19b(21)-19pb-19br-17--|
G|-16---/18-------18-------------------------18----------------------------18|
D|---18----------------------------------------------------------------------|
A|---------------------------------------------------------------------------|
E|---------------------------------------------------------------------------|


e|---------------------------------------------------------------------------|
B|-17--19--19b-19br-17-------------------------------------------------------|
G|---------------------18----------------------------------------------------|
D|---------------------------------------------------------------------------|
A|---------------------------------------------------------------------------|
E|---------------------------------------------------------------------------|

e|---------------------------------------------------------------------------|
B|---------------------------------------------------------------------------|
G|-6--6-6-6-6-6-6------------------------------------------------------------|
D|-4--4-4-4-4-4-4--6--6-6-6-6-6--4--4-4-4-4-4-4-4--4-4-4-4-4-----------------|
A|-----------------4--4-4-4-4-4--2--2-2-2-2-2-2-2--2-2-2-2-2-----------------|
E|---------------------------------------------------------------------------|
   Makes no sense the things you do or say girl. 

e|---------------------------------------------------------------------------|
B|---------------------------------------------------------------------------|
G|-6--6-6-6-6-6-6------------------------------------------------------------|
D|-4--4-4-4-4-4-4--6--6-6-6-6-6--4--4-4-4-4-4-4-4--4-4-4-4-4-----------------|
A|-----------------4--4-4-4-4-4--2--2-2-2-2-2-2-2--2-2-2-2-2-----------------|
E|---------------------------------------------------------------------------|
  Cause everything you say comes back to me.

e|---------------------------------------------------------------------------|
B|---------------------------------------------------------------------------|
G|-6--6-6-6-6-6-6------------------------------------------------------------|
D|-4--4-4-4-4-4-4--6--6-6-6-6-6--4--4-4-4-4-4-4-4--4-4-4-4-4-----------------|
A|-----------------4--4-4-4-4-4--2--2-2-2-2-2-2-2--2-2-2-2-2-----------------|
E|---------------------------------------------------------------------------|
  Don't go playin' with me emotionally

e|---------------------------------------------------------------------------|
B|---------------------------------------------------------------------------|
G|-6--6-6-6-6-6-6------------------------------------------------------------|
D|-4--4-4-4-4-4-4--6--6-6-6-6-6--4--4-4-4-4-4-4-4--4-4-4-4-4-----------------|
A|-----------------4--4-4-4-4-4--2--2-2-2-2-2-2-2--2-2-2-2-2-----------------|
E|---------------------------------------------------------------------------|
   Or I will make you bleed internally!


e|---------------------------------------------------------------------------|
B|---------------------------------------------------------------------------|
G|---------------4-4-4-4-4-4-4-4---4---4---4---4---4---4---------------------|
D|--6--6---4--4--2-2-2-2-2-2-2-2---2---2---2---2---2---2---------------------|
A|--4--4---2--2--------------------------------------------------------------|
E|---------------------------------------------------------------------------|


e|---------------------------------------------------------------------------|
B|---------------------------------------------------------------------------|
G|---------------4-4-4-4-4-4-4-4---4---4---4---4---4---4---------------------|
D|--6--6---4--4--2-2-2-2-2-2-2-2---2---2---2---2---2---2---------------------|
A|--4--4---2--2--------------------------------------------------------------|
E|---------------------------------------------------------------------------|



e|---------------------------------------------------------------------------|
B|---------------------------------------------------------------------------|
G|---------------4-4-4-4-4-4-4-4---4---4---4---4---4---4---------------------|
D|--6--6---4--4--2-2-2-2-2-2-2-2---2---2---2---2---2---2---------------------|
A|--4--4---2--2--------------------------------------------------------------|
E|---------------------------------------------------------------------------|



e|---------------------------------------------------------------------------|
B|---------------------------------------------------------------------------|
G|---------------4-4-4-4-4-4-4-4---4---4---4---4---4---4---------------------|
D|--6--6---4--4--2-2-2-2-2-2-2-2---2---2---2---2---2---2---------------------|
A|--4--4---2--2--------------------------------------------------------------|
E|---------------------------------------------------------------------------|


e|---------------------------------------------------------------------------|
B|---------------------------------------------------------------------------|
G|-6--6-6-6-6-6-6------------------------------------------------------------|
D|-4--4-4-4-4-4-4--6--6-6-6-6-6--4--4-4-4-4-4-4-4--4-4-4-4-4-----------------|
A|-----------------4--4-4-4-4-4--2--2-2-2-2-2-2-2--2-2-2-2-2-----------------|
E|---------------------------------------------------------------------------|
   Makes no sense the things you do or say girl. 

e|---------------------------------------------------------------------------|
B|---------------------------------------------------------------------------|
G|-6--6-6-6-6-6-6------------------------------------------------------------|
D|-4--4-4-4-4-4-4--6--6-6-6-6-6--4--4-4-4-4-4-4-4--4-4-4-4-4-----------------|
A|-----------------4--4-4-4-4-4--2--2-2-2-2-2-2-2--2-2-2-2-2-----------------|
E|---------------------------------------------------------------------------|
  Cause everything you say comes back to me.

e|---------------------------------------------------------------------------|
B|---------------------------------------------------------------------------|
G|-6--6-6-6-6-6-6------------------------------------------------------------|
D|-4--4-4-4-4-4-4--6--6-6-6-6-6--4--4-4-4-4-4-4-4--4-4-4-4-4-----------------|
A|-----------------4--4-4-4-4-4--2--2-2-2-2-2-2-2--2-2-2-2-2-----------------|
E|---------------------------------------------------------------------------|
  Don't go playin' with me emotionally

e|---------------------------------------------------------------------------|
B|---------------------------------------------------------------------------|
G|-6--6-6-6-6-6-6------------------------------------------------------------|
D|-4--4-4-4-4-4-4--6--6-6-6-6-6--4--4-4-4-4-4-4-4--4-4-4-4-------------------|
A|-----------------4--4-4-4-4-4--2--2-2-2-2-2-2-2--2-2-2-2-------------------|
E|---------------------------------------------------------------------------|
   Cause I will make you bleed internally!            
Submit corrections


        Automatic lessons Hard to play? Try these video lessons and learn fast Automatic lessons
        
↑ Back to top | Tablatures and chords for acoustic guitar and electric guitar, ukulele, drums are parodies/interpretations of the original songs. You may use it for private study, scholarship, research or language learning purposes only