» » »

Get Up Kids - Shorty Tabs

Artists:  A B C D E F G H I J K L M N O P Q R S T U V W X Y Z # 

Shorty Tabs

(ver. 1) Click to play this song!
Get Up Kids
 Rating:
4/5 (4 votes)

 Shorty lessons Tabs too difficult? Try these video lessons and learn fast
 
                THE GET UP KIDS	
FOUR MINUTE MILE
SHORTY

NORMAL TUNING

INTRO

GUITAR 1
|----------------------------------------------------|-------------------------------------------|
|----------------------------------------------------|-------------------------------------------|
|--4--------7--------4----------------4---------7----|-------------------------------------------|
|--4--------7--------4--------5-------4---------7----|--7-7-7-7-7-7-7-7-7-7-5-5-5-5-5-5-5-5-5-5--|
|--2--------5--------2--------5-------2---------5----|--7-7-7-7-7-7-7-7-7-7-5-5-5-5-5-5-5-5-5-5--|
|-----------------------------3----------------------|--5-5-5-5-5-5-5-5-5-5-3-3-3-3-3-3-3-3-3-3--|
                                             distortion_________________________________________
GUITAR 2
|----------------------------------------------------|-------------------------------------------|
|----------------------------------------------------|-------------------------------------------|
|----------------------------------------------------|--14-14-14-14-12-11-12-12-12-12-11-9-11-7--|
|-----------------------5-4-----4h5-2/4--------------|---X--X--X--X--X--X--X--X--X--X--X-X--X-X--|
|-----------------------------------------------2/12-|--12-12-12-12-10--9-10-10-10-10--9-7--9-5--|
|----------------------------------------------------|-------------------------------------------|
                                             distortion__________________________________________

VERSE 1 - is pretty much the same as the intro, except GUITAR 2 doesn't do the small fills in the clean bit and the octaves that GUITAR 2 plays in the distorted bit are:
--------|--------------------------------------------------|
--------|--------------------------------------------------|
--------|--14-14-14-14-12-11-12-12-12-12-12----------------|
--------|---X--X--X--X--X--X--X--X--X--X--X----------------|
--2/12--|--12-12-12-12-10--9-10-10-10-10-10--[pick slide]--|
--------|--------------------------------------------------|

CHORUS
 
GUITAR 1
|---------------------------------------------------------------------------------|
|---------------------------------------------------------------------------------|
|----------------------4-4-4-4-4-4-4-4-4-4----------------------------------------|
|--5-5-5-5-5-5-5-5-5-5-4-4-4-4-4-4-4-4-4-4-7-7-7-7-7-7-7-7-7-5-5-5-5-5-5-5-5-5-5--|
|--5-5-5-5-5-5-5-5-5-5-2-2-2-2-2-2-2-2-2-2-7-7-7-7-7-7-7-7-7-5-5-5-5-5-5-5-5-5-5--|
|--3-3-3-3-3-3-3-3-3-3---------------------5-5-5-5-5-5-5-5-5-3-3-3-3-3-3-3-3-3-3--|x2

GUITAR 2
|----------------------------------------------------------------------------------|
|----------------------------------------------------------------------------------|
|----------------------4-4-4-4-4-4-4-4-4-4-14-14-12-11-14-12-11--------------------|
|--5-5-5-5-5-5-5-5-5-5-4-4-4-4-4-4-4-4-4-4--X--X--X--X--X--X--X-5-5-5-5-5-5-5-5-5--|
|--5-5-5-5-5-5-5-5-5-5-2-2-2-2-2-2-2-2-2-2-12-12-10--9-12-10--9-5-5-5-5-5-5-5-5-5--|
|--3-3-3-3-3-3-3-3-3-3------------------------------------------3-3-3-3-3-3-3-3-3--|x2

VERSE 2 - is the same but this time where guitar 1 strums a chorus, guitar softly strums the octave.

BRIDGE

GUITAR 1
|-------------------------------|
|-------------------------------|
|--4-4-4-7-7-7-7----------------|
|--4-4-4-7-7-7-7-5-5-5-5-5-5-5--|
|--2-2-2-5-5-5-5-5-5-5-5-5-5-5--|
|----------------3-3-3-3-3-3-3--|x4

GUITAR 2
|--2h3p2-3/5-3-2h3p2------------|
|--------------------3-3/5-3-0--|
|-------------------------------|
|-------------------------------|
|-------------------------------|
|-------------------------------|x4

THEN BOTH GUITARS PLAY (".....overreacting.....")
|--------------------------------------------------------------------|
|--------------------------------------------------------------------|
|--------------------------------------------------------------------|
|--4-4-4-4-4-4-4-4-4-4-5-5-5-5-5-5-5-5-5-5-4-4-4-4-4-4-4-4-4-4-5--5--|
|--4-4-4-4-4-4-4-4-4-4-5-5-5-5-5-5-5-5-5-5-4-4-4-4-4-4-4-4-4-4-5--5--|
|--2-2-2-2-2-2-2-2-2-2-3-3-3-3-3-3-3-3-3-3-2-2-2-2-2-2-2-2-2-2-3--3--|

VERSE 3 - similar to the other 2, but guitar 1 plays the distorte A5 and G5 and GUITAR 2 plays:
--|------------------------------------------------------|
--|---------------------------12-14-15-17----------------|
--|--14-14-14-14-12-11-12--14--X--X--X--X----------------|
--|---X--X--X--X--X--X--X---X--9-11-12-14----------------|
--|--12-12-12-12-10--9-10--12--------------[pickscr*pe]--|
--|------------------------------------------------------|


PLAY BRIDGE AGAIN and the bit where hes singin "overreacting"

Then play this riff [OUTRO RIFF]

GUITAR 1
|-----------------------------------------------------------------------------------------------------|
|-----------------------------------------------------------------------------------------------------|
|------7------7------7------7------7------7-----7------7------7------7------7------7------------------|
|-------------------------------------------------------------------------------------5-5-5-5-5-------|
|--5-5----5-5----5-5----5-5----7-7----7-7----7-7----7-7-------------------------------5-5-5-5-5-etc.--|
|----------------------------------------------------------7-7----7-7----7-7----7-7---3-3-3-3-3-------|
                                                                                   pm..........
THEN: [solo sorta thing]
GUITAR 1
|-----------------------------------------------------------------------------------|
|-----------------------------------------------------------------------------------|
|--7-7-7-7-7-7-7-7-7-7-7-9-9-9-9-9-9-9-9-9------------------------------------------|
|--7-7-7-7-7-7-7-7-7-7-7-9-9-9-9-9-9-9-9-9-9-9-9-9-9-9-9-9-9-9-5-5-5-5-5-5-5-5-5-5--|
|--5-5-5-5-5-5-5-5-5-5-7-7-7-7-7-7-7-7-7-7-9-9-9-9-9-9-9-9-9-9-5-5-5-5-5-5-5-5-5-5--|
|------------------------------------------7-7-7-7-7-7-7-7-7-7-3-3-3-3-3-3-3-3-3-3--|x4

GUITAR 2
|-----------------------------------------|-----------------------------------------|
|-----------------------------------------|-----------------------------------------|
|--7-7-11-12-7-7-11-12-7-7-11-12-12-------|--11-12-11-11-12-11-11-12-11-7-12--------|
|--X-X--X--X-X-X--X--X-X-X--X--X--X-------|---X--X--X--X--X--X--X--X--X-X--X--------|
|--5-5--9-10-5-5--9-10-5-5--9-10-10-------|---9-10--9--9-10--9--9-10--9-5-10--------|
|-----------------------------------[x2]--|-----------------------------------[x2]--|

THEN
GUITAR 1 PLAYS OUTRO RIFF AGAIN BUT PM THIS TIME - end on D5

GUITAR 2
|-----------------------------------------------------------------------|
|--------------5/7----------8---------7----------8-------7---7-7-7h8p7--|
|--7------9-----------9------------------------------------7------------|
|------------------------------------------9----------------------------|
|-----------------------------------------------------------------------|
|-----------------------------------------------------------------------|
            
Submit corrections


        Shorty lessons Hard to play? Try these video lessons and learn fast Shorty lessons
        
↑ Back to top | Tablatures and chords for acoustic guitar and electric guitar, ukulele, drums are parodies/interpretations of the original songs. You may use it for private study, scholarship, research or language learning purposes only