» » »

Get Up Kids - Holiday Tabs

Artists:  A B C D E F G H I J K L M N O P Q R S T U V W X Y Z # 

Holiday Tabs

(ver. 1) Click to play this song!
Get Up Kids
 Rating:
4/5 (5 votes)

 Holiday lessons Tabs too difficult? Try these video lessons and learn fast
 
                "Holiday" - The Get Up Kids

Everything's pretty much in order, learn the riffs, they just repeat

guitar 1:

--------------------------------------------------
--------------------------------------------------
--9--11--13--11--13---11-9--8-9-11-13-11-13\11-9--
--------------------------------------------------
--7---9--11---9--11----9-7--6-7--9-11--9-11\-9-7--
--------------------------------------------------

guitar 2:

------------------------------------------
------------------------------------------
--9--11--13--11--9----------8-9-11--8-11--
------------------------------------------
--7---9--11---9--7----------6-7--9--6--9--
------------------------------------------ 

rythm

-------------4---2----0-------4---2----0--
-------------5---4----2-------5---4----2--
-------------6---4----2-------6---4----2--
-4------7----6---4----2-------6---4----2--
-4------7----4---2----0-------4---2----0--
-2------5---------------------------------

lead

-------------------------------------------------
-------------------------------------------------
-11--13\9----9-8-4-11-9-8-9---9-8-4-14-13-14-16--
-------------------------------------------------
--9--11\7----7-6-2--9-7-6-7---7-6-2-12-11-12-14--
------------------------------------------------- 

"say goodnight, mean goodbye"

rythym
-0---4------0--2---4----0-----0--2----0-----------------4--
-0---5------2--4---5----0-----2--4----0-----------------5--
-1---6------2--4---6----1-----2--4----1-----------------6--
-2---6------2--4---6----2-----2--4----2-----------------6--
-2---4------0--2---4----2-----0--2----2-----------------4--
-0----------------------0-------------0--------------------

lead
                                      clean
------------------------------------------9-12-----10-9-----9-12-----10-9--
-9---9-8-4--9--11--13---9-----9--11-----9------9----------9------9---------
--------------------------------------9----------9------9----------9-------
-7---7-6-2--7---9--11---7-----7---9----------------------------------------

    part 2 "I've never forgotten...

rytym
-0-------2-------4-------0---------0-------2--
-2-------4-------5-------0---------2-------4--
-2-------4-------6-------1---------2-------4--
-2-------4-------6-------2---------2-------4--
-0-------2-------4-------2---------0-------2--
-------------------------0--------------------

lead, (clean)
----------------------------------------------
-----9-------9-------9-------9---------9------
---9---9---9---9---9---9---9---9-----9---9-8--
-9-------9-------9-------9---------9-------9--
-------------------------------------------9--
-------------------------------------------7-- 

than.......

-0-------2-------4-------0---------0-------2-------4-------0--------0--------2--
-2-------4-------5-------0---------2-------4-------5-------0--------2--------4--
-2-------4-------6-------1---------2-------4-------6-------1--------2--------4--
-2-------4-------6-------2---------2-------4-------6-------2--------2--------4--
-0-------2-------4-------2---------0-------2-------4-------2--------0--------2--
-------------------------0---------------------------------0--------------------

lead part again

-----9-------9-------9-------9---------9-------9-------9-------9-------9-------9----
---9---9---9---9---9---9---9---9-----9---9---9---9---9---9---9---9---9---9---9---9--
-9-------9-------9-------9---------9-------9-------9-------9-------9-------9--------

Bridge

Rythym
--------------------------------------------
--------------------------------------------
--------------------------------------------
--4--6--7---4---6--7---------------4--6--7--
--4--6--7---4---6--7---------------4--6--7--
--2--4--5---2---4--5---------------2--4--5--

Lead
--------------------------------------------------------
--------------------------------------------------------
--9--9--9---9---9--9---9---9--9----9--9--9-11-13-14-16--
--------------------------------------------------------
--7--7--7---7---7--7---7---7--7----7--7--7--9-11-12-14--
--------------------------------------------------------
            
Submit corrections


        Holiday lessons Hard to play? Try these video lessons and learn fast Holiday lessons
        
↑ Back to top | Tablatures and chords for acoustic guitar and electric guitar, ukulele, drums are parodies/interpretations of the original songs. You may use it for private study, scholarship, research or language learning purposes only